Song name
# A B C D E F G H I J K L M N O P Q R S T U V W X Y Z

Archeon - Dead World tab

Archeon - Dead World
I do not own this song and do not take any credit for it. It is owned by AFM-Records.


Lead Part:

|-----------------------------------------------------------------------------|
|-----------------------------------------------------------------------------|
|---------------------------------------------------8-12-8----8-------7-------|
|--------------10------------------10------10----10--------10---8---8---6---5-|
|--8---8-10-11---11-10-8---8-10-11---11-10----10------------------8-------6---|
|----8-------------------8----------------------------------------------------|

Rhythm Part is played on a distorted guitar:
24x
|------|
|------|
|------|
|--10--|
|--10--|
|--8---|
then its:
4x        4x
|-----|   |-----|
|-----|   |-----|
|-----|   |-----|
|--8--|   |--6--|
|--8--|   |--6--|
|--6--|   |--4--|

Everything's repeated overr and over again.
Enjoy!!!
Tap to rate this tab
# A B C D E F G H I J K L M N O P Q R S T U V W X Y Z