Song name
# A B C D E F G H I J K L M N O P Q R S T U V W X Y Z

Archers Of Loaf - White Trash tab

Help us improve GuitareTab! Take a short survey!
hi
I know, the song is already tabbed correctly, but this version is played much deeper, 
sounds better to me

melody(during the whole song):
|--------------------------------------------------|
|--------------------------------------------------|
|--------------------------------------------------|
|---2---2---2---2---5---5---5---5------------------|
|-0---0---0---0---3---3---3---3-----3---3---3---3--|
|---------------------------------1---1---1---1----|

|-------------------------------------------------|
|-------------------------------------------------|
|-------------------------------------------------|
|---2---2---2---2-------------------5---5---5---5-|
|-0---0---0---0-----3---3---3---3-3---3---3---3---|
|-----------------1---1---1---1-------------------|

|---------------------------------|
|---------------------------------|
|---------------------------------|
|---------------------------------|
|---5---5---5---5---3---3---3---3-|
|-3---3---3---3---1---1---1---1---|

solo
|------------------------------------------------------------|
|----------------5---------------5---------------------------|
|-7---7-5---5-7----7-5------5-7----7-5----5--------0-2-0-----|
|----------------------7---------------7----7-5-3--------3-0-|
|------------------------------------------------------------|
|------------------------------------------------------------|
Related for White Trash tab