Archers Of Loaf - Telepathic Traffic tab

Standard tuning (E A D G B e)

e|---------------------|   |--|
B|---------------------|   |--|
G|---------------------|   |--|
D|---------------------| x7|--|
A|-444-7777-xx---------|   |-4|
E|---------------------|   |--|

e|----------------------------------------------------------------|
B|----------------------------------------------------------------|
G|-6----------4---2-----------------------------------------------|
D|-6-----2----4---2-----------------------------------------------|
A|-4-----2----2---0-----------------------------------------------|
E|-------0--------------------------------------------------------|
Tap to rate this tab
 
# A B C D E F G H I J K L M N O P Q R S T U V W X Y Z