Song name
# A B C D E F G H I J K L M N O P Q R S T U V W X Y Z

Archers Of Loaf - Bumpo tab

I did not tab this, just found it somewhere else and thought it should be put up
here for all the UG 90s indie rock fanboys

Bumpo
Archers of Loaf
All the Nations airports

Rhythm Guitar                   Lead
----||---------------------------||----------------------------------|
----||---------------------------||----------------------------------|
----||*-------------------------*||*-7--6------------6---------------|
----||*-------------------------*||*-------9-7-9---7---9--7----------|
--7/||--5---7---10--9--9---7---7-||--------------------------9--7----|
--5/||--7---5---8---7--7---5---5-||----------------------------------|

repeat 2 times
---------------||-------------------------------------------------|
---------------||---------------------------10--10-12-10----------|
--------------*||-7-7--6-6/9--7-6-9-7-6-9-11--11---------11\------|
--------------*||-------------------------------------------------|
-9-7-5---4-----||-------------------------------------------------|
-----------5-7-||-------------------------------------------------|

                                         4 Times
-----------------------------------------||-2-3-2----||---------|
-----------------------------------------||-3-0-3----||---------|
-7--6----------6-------------------------||*2-0-4---*||---------|
-------9-7-9-7---9-7---------------------||*--0-4---*||---------|
---------------------9-7---9--7--5--4----||---2-2----||---------|
---------------------------------------5-||---3------||---------|
3 times                        2 times
||-2-2-2-2-2-----||-------||---------------------------------------||
||-3-3-3-3-3--2--||--7b---||---------------------------------------||
||*2-2-2-2-2--2-*||--9b---||*-7-6---------6-----------------------*||
||*-----------0-*||-------||*-----9-7-9--7--9-7-------------------*||
||---------------||-------||---------------------9-7--9-7-5--4-----||
||---------------||-------||-----------------------------------5-7-||

---------------------------------------||----------------------------|
----------------------------10--11--12-||----------------------------|
--7-7-6-6/-9--7-6-9-7-6-9-11--12--13-14||--7-6---------6-------------|
---------------------------------------||-------9-7-9-7--9-7---------|
---------------------------------------||--------------------9-7-9-7-|
---------------------------------------||----------------------------|

---------------------------------------------------------------------|
---------------------------------------------------------------------|
---------------------------------------------------------------------|
---------------------------------------------------------------------|
--5-4----------------------------------------------------------------|
------5-7------------------------------------------------------------|
Tap to rate this tab
# A B C D E F G H I J K L M N O P Q R S T U V W X Y Z