Song name
# A B C D E F G H I J K L M N O P Q R S T U V W X Y Z

Archers Of Loaf - Greatest Of All Time tab

Okay, this probably isn't right, and it's just the intro, but it's a
start.


e-------------------------------------------------------------------|
B-------------------------------------------------------------------|
G--------------------------------0-0-0-0-0--------------------------|
D----------------------------10-------------------------------------|
A----0--0----0--0----0----0-----------------------------------------|
E--9-------9------9-----9-------------------------------------------|

after playing that for awhile I THINK it's this:
e-------------------------------------------------------------------|
B-------------------------------------------------------------------|
G--------------------------------------0-0-0-0-0--------------------|
D--10----10-/-13--13--13-/-10------10-------------------------------|
A-------------------------------0-----------------------------------|
E--9-----9--/-12--12--12-/--9---------------------------------------|


that's all I got, if you have something better, PLEASE post it.
Tap to rate this tab
# A B C D E F G H I J K L M N O P Q R S T U V W X Y Z