Guitaretab - guitar tabs
Song name
# A B C D E F G H I J K L M N O P Q R S T U V W X Y Z

Archers Of Loaf - Might tab

-------------------------------------------------------------------------------
			     MIGHT - Archers of Loaf
-------------------------------------------------------------------------------

Tabbed by: Zane "o mack"
Email: toadiesrock@yahoo.com

Tuning: Standard

This is the bare bones of the song. I couldn't really figure out what the second guitar 
doing most of the time.

------
INTRO
------
[ Tab from: http://www.guitaretab.com/a/archers-of-loaf/54998.html ]
e|---------------------------------------------------------------------------------|
B|---------------------------------------------------------------------------------|
G|-----4------4------4-------4-----------------------------------------------------|
D|---2------2------2-------2-------------------------------------------------------|
A|---------------2-----2-0-----0---------------------------------------------------|
E|-0------0------------------------------------------------------------------------|

Verse: E B
Chorus:
Guitar 1: A G# C# B
Guitar 2:
e|---------------------|
B|-10---9----14---12---|
G|-12b--11b--16b--14b--|
D|---------------------|
A|---------------------|
E|---------------------|
Related for Might tab
×
Might