Song name
# A B C D E F G H I J K L M N O P Q R S T U V W X Y Z

Archers Of Loaf - White Trash Heroes tab

Tabbed by:CMM
Email:colin_michael_muppet@hotmail.com

Tuning: Standard

(Main Riff) 
e|-------------------------------------------------------------------------|
B|-------------------------------------------------------------------------|
G|-------------------------------------------------------------------------|
D|---7---7---7---7---10---10---10---10--------------------7---7---7---7----|
A|-5---5---5---5---8----8----8----8------8---8---8---8--5---5---5---5------|
E|-------------------------------------6---6---6---6-----------------------|

e|-------------------------------------------------------------------------|
B|-------------------------------------------------------------------------|
G|-------------------------------------------------------------------------|
D|-------------------10---10---10---10-------------------------------------|
A|---8---8---8---8-8----8----8----8------10---10---10---10----8---8---8---8|
E|-6---6---6---6-----------------------8----8----8----8-----6---6---6---6--|

Note: Riff will be an octave higher than in the song.

(Solo)
e|-------------------------------------------------------------------------|
B|-----------------------5---------------------5---------------------------|
G|-7---7---5~-----5-7------7-5----------5-7------7-5---5---------0--2-0----|
D|------------------------------7~-------------------7----7p5-3---------3-0|
A|-------------------------------------------------------------------------|
E|-------------------------------------------------------------------------|
Tap to rate this tab
# A B C D E F G H I J K L M N O P Q R S T U V W X Y Z