Song name
# A B C D E F G H I J K L M N O P Q R S T U V W X Y Z

Archgoat - The Dawn Of The Antichrist tab

                                                                  ARCHGOAT
                                                        Dawn of the Antichrist
                                                (The Light-Devouring Darkness)

Guitar (Tuning 2 Steps Down (C Standard))


RIFF A
              PM PM PM PM
C ||-------|-----------------------|---------------------|
G ||-------|-----------------------|---------------------|
D#||-------|-----------------------|---------------------|
A#||-------|-----------------------|---------------------|
F ||-------|--5--5--5--5--5--------|--3--------6----3----|
C ||-------|--3--3--3--3--3--------|--1--------4----1----|

  PM PM PM PM                                   PM PM PM PM
-----------------------|---------------------|-----------------------|
-----------------------|---------------------|-----------------------|
-----------------------|---------------------|-----------------------|
-----------------------|---------------------|-----------------------|
--5--5--5--5--5--------|--3--------8----6----|--5--5--5--5--5--------|
--3--3--3--3--3--------|--1--------6----4----|--3--3--3--3--3--------|

                        PM PM PM PM
---------------------|-----------------------|----------------------|
---------------------|-----------------------|----------------------|
---------------------|-----------------------|----------------------|
---------------------|-----------------------|----------------------|
--3--------6----3----|--5--5--5--5--5--------|--8----6----3----6----|
--1--------4----1----|--3--3--3--3--3--------|--6----4----1----4----|

  PM PM PM PM                                   PM PM PM PM
-----------------------|---------------------|-----------------------|
-----------------------|---------------------|-----------------------|
-----------------------|---------------------|-----------------------|
-----------------------|---------------------|-----------------------|
--5--5--5--5--5--------|--3--------6----3----|--5--5--5--5--5--------|
--3--3--3--3--3--------|--1--------4----1----|--3--3--3--3--3--------|

                        PM PM PM PM
---------------------|-----------------------|---------------------|
---------------------|-----------------------|---------------------|
---------------------|-----------------------|---------------------|
---------------------|-----------------------|---------------------|
--3--------6----8----|--5--5--5--5--5--------|--3--------6----3----|
--1--------4----6----|--3--3--3--3--3--------|--1--------4----1----|

  PM PM PM PM
-----------------------|----------------------|
-----------------------|----------------------|
-----------------------|----------------------|
-----------------------|----------------------|
--5--5--5--5--5--------|--8----6----3----6----|
--3--3--3--3--3--------|--6----4----1----4----|

RIFF B

----------------------------------|----------------------------------|
----------------------------------|----------------------------------|
----------------------------------|----------------------------------|
----------------------------------|----------------------------------|
--5-5-6-6-5-5-6-6-5-5-3-3-6-6-8-8-|--5-5-6-6-5-5-6-6-5-5-3-3-6-6-8-8-|
--3-3-4-4-3-3-4-4-3-3-1-1-4-4-6-6-|--3-3-4-4-3-3-4-4-3-3-1-1-4-4-6-6-|

----------------------------------|----------------------------------|
----------------------------------|----------------------------------|
----------------------------------|----------------------------------|
----------------------------------|----------------------------------|
--5-5-6-6-5-5-6-6-5-5-3-3-6-6-8-8-|--5-5-6-6-5-5-6-6-5-5-3-3-6-6-8-8-|
--3-3-4-4-3-3-4-4-3-3-1-1-4-4-6-6-|--3-3-4-4-3-3-4-4-3-3-1-1-4-4-6-6-|

RIFF C

------------------------|------------------------|------------------------|
------------------------|------------------------|------------------------|
------------------------|------------------------|------------------------|
------------------------|------------------------|------------------------|
--7--------8----12--10--|--7--------8----12--10--|--7--------8----12--10--|
--5--------6----10---8--|--5--------6----10---8--|--5--------6----10---8--|

------------------------|
------------------------|
------------------------|
------------------------|
--7--------8----12--10--|
--5--------6----10---8--|

PLAY AGAIN:
RIFF B
RIFF C

RIFF D (PLAY 8 TIMES IN TOTAL

--------------------------|--------------------------|
--------------------------|--------------------------|
--------------------------|--------------------------|
--------------4--4--4--4--|--------------7--7--7--7--|
--5--5--5--5--2--2--2--2--|--6--6--6--6--5--5--5--5--|
--3--3--3--3--------------|--4--4--4--4--------------|

PLAY:
RIFF A
RIFF D (8 TIMES)
RIFF B
RIFF C
RIFF B
RIFF C
RIFF D (8 TIMES)

END RIFF

--------------------------|--------------------------|-------------------||
--------------------------|--------------------------|-------------------||
--------------------------|--------------------------|-------------------||
--------------4--4--4--4--|--------------7--7--7--7--|-------------------||
--5--5--5--5--2--2--2--2--|--6--6--6--6--5--5--5--5--|--5----------------||
--3--3--3--3--------------|--4--4--4--4--------------|--3----------------||




Duration Legend
---------------
W - whole
H - half
Q - quarter
E - 8th
S - 16th
T - 32nd
X - 64th
. - note dotted
|-n-|  - n-tuplets


Tablature Legend
----------------
L - tied note
x - dead note
g - grace note
(n) - ghost note
> - accentuded note
NH - natural harmonic
AH - artificial harmonic
TH - tapped harmonic
SH - semi harmonic
PH - pitch harmonic
h - hammer on
p - pull off
b - bend
br - bendRelease
pb - preBend
pbr - preBendRelease
brb - bendReleaseBend
\n/ - tremolo bar dip
\n - tremolo bar dive
-/n - tremolo bar Release up
/n\ - tremolo bar inverted dip
/n - tremolo bar return
-\n - tremolo bar Release down
S - shift slide
s - legato slide
/ -  slide into from below or out of upwards
\ -  slide into from above or out of downwards
~ - vibrato
W - wide vibrato
tr - trill
TP - tremolo picking
T - tapping
S - slap
P - pop
< - fade in
^ - brush up
v - brush down
Tap to rate this tab
# A B C D E F G H I J K L M N O P Q R S T U V W X Y Z