Song name
# A B C D E F G H I J K L M N O P Q R S T U V W X Y Z

Archie Star - Fever tab

Capo 1 
                     G                                       G/B    G/B maj7
|-------------------|-----3-3-----3-3--|----------------|----3-3-----2-2---|
|-------------------|-----3-3-----3-3--|----------------|----3-3-----3-3---|
|-----0-------------|-----0-0--(0)0-0--|-0--------------|----0-0--(0)0-0---|
|-0h2---2p0-------0-|-----0-0--(0)0-0--|------0---0---0-|----0-0--(0)0-0---|
|-----------3-2h3---|(2)--2-2---2-2-2--|--2h3---2---0---|----2-2---2-2-2---|
|-------------------|-3---3-3---3-3-3--|----------------|-0----------------|

                 C                                     G
|(2)------------|-------0-(0)----|-------------------|---3-3-3--3-3--3-|-3-|
|---------------|-------1--1-----|---------0---------|---3-3-3--3-3--3-|-3-|
|-----0---0---0-|---0----------0-|-----2-------2-----|---0-0(0)-0-0--0-|-0-|
|-2h3---2---0---|-----2----------|-0h2---0---0--(0)--|---0-0(0)-0-0--0-|-0-|
|---------------|-3----------3---|---------------0-2-|-2-2-2----2-2--2-|-2-|
|---------------|----------------|-----------------3-|-3-3-3----3-3--3-|-3-|
Plays percussive notes on ^ ^ acoustic body         
Tap to rate this tab
 
# A B C D E F G H I J K L M N O P Q R S T U V W X Y Z