Song name
# A B C D E F G H I J K L M N O P Q R S T U V W X Y Z

Archie Star - Pull Down The Moon tab

-----------------------------------------------------------------------------
			     Pull Down the Moon - Archie Star
-----------------------------------------------------------------------------
Tabbed by:
Email:

Tuning: Standard

Intro Lead
e|----------------6---3~---------------------------6--3~-----|
B|-------------4-------------------4~-----------4------------|
G|-------3h5-----------------3h5----------3h5----------------|
D|-----------------------------------------------------------|
A|-----------------------------------------------------------|
E|-----------------------------------------------------------|

Intro Rhythm
e|---333-------------------------------|
B|---444-------------------------------|
G|---555---8888---7777---1010101010----|
D|---555---8888---8888---1010101010----|
A|---333---6666---8888----8-8-8-8-8----|
E|----------------6666-----------------|

play these chords for the whole intro, once they start singing you just hit each chord 
and let it ring.

each part is played repeated throughout the song, just listen to know which one goes where.

There is one part, it's a little different, but it uses the same notes

Lead (1:03)
part 1                           part 2
e|------------------------------|--------------------------|
B|---------4----6-----4---4/6/4-|-------4--4/6/4-----------|
G|----3333---33----33---3-------|-----3--------------------|
D|------------------------------|--------------------------|
A|------------------------------|--------------------------|
E|------------------------------|--------------------------|

The first part is repeated 4 times and the second 3 times and on the fourth it is 
to this....
part 2 cont.
e|-----------------------|
B|-----6b7---4/6/4-------|
G|-----------------------|
D|-----------------------|
A|-----------------------|
E|-----------------------|
 then repeat part 2


Chorus

e|-----------------------------------------|
B|-----------------------------------------|
G|--------------88888----------------------|
D|------66666---88888--88888--10101010-----|
A|------66666---66666--88888--10101010-----|
E|------44444----------66666---8-8-8-8-----|


I do not know the rest of it, as far as lead goes,
rhythm basically stays the same through the song,
just listen to know what to play when.

Please comment and rate.


************************************

| /   slide up
| \   slide down
| h   hammer-on
| p   pull-off
| ~   vibrato
| +   harmonic
| x   Mute note
| b   Bend
| pb  Pre-bend
| br  Bend release
| pbr Pre-bend release
| brb Bend release bend

************************************
Tap to rate this tab
 
# A B C D E F G H I J K L M N O P Q R S T U V W X Y Z