Guitaretab - guitar tabs
Song name
# A B C D E F G H I J K L M N O P Q R S T U V W X Y Z
Home / A / Architects / Low tab

Architects - Low tab

Song: Low
Artist: Architects
I simply copied this tab from the guitar pro version so people who donít have guitar pro 
read it because it is a great song.
Guitar 1
Just listen for timings and stuff they are pretty wild!
Riff 1
----------------------------------------------|
----------------------------------------------|
----2-----------------------------------------|
----2-----------------------------------------|
----0-----------------------------------------|
----------------------------------------------|
[______let ring_______________________________]x4
Listen for timing

Riff 2
----------------------------------------------|
----------------------------------------------|
---2------------------------------------------|
---2------------------------------------------|
---0------------------------------------------|
----------------------------------------------|
[___________let ring_________________________]x8
Listen for timing
Riff 3
----------------------------------------------|
----------------------------------------------|
---5------------------------------------------|
---5------------------------------------------|
---3------------------------------------------|
----------------------------------------------|
[_________let ring_____________________________]x2
Listen for timing
Riff 4
----------------------------------------------|
----------------------------------------------|
---7------------------------------------------|
---7------------------------------------------|
---5------------------------------------------|
----------------------------------------------|
[_______________let ring_____________________]x2
Listen for timing
Back to riff 2 x4
Back to riff 3 x2
Back to riff 4 x2
Continue throughout until 1:14 then
   T         T
---17-5-7-8-19-5-7----------------------------|
----------------------------------------------|
----------------------------------------------|
----------------------------------------------|
----------------------------------------------|
----------------------------------------------|x4
   T        T
---17-5-7-8-20-5-7----------------------------|
----------------------------------------------|
----------------------------------------------|
----------------------------------------------|
----------------------------------------------|
----------------------------------------------|x2
[ Tab from: http://www.guitaretab.com/a/architects/175279.html ]
   T        T
---17-5-7-8-24-5-7----------------------------|
----------------------------------------------|
----------------------------------------------|
----------------------------------------------|
----------------------------------------------|
----------------------------------------------|
   T       T      T
---25-5-7-25-5-7-24-5-7-----------------------|
----------------------------------------------|
----------------------------------------------|
----------------------------------------------|
----------------------------------------------|
----------------------------------------------|
Repeat that^^ 4 times then
Riff 5
----------------------------------------------|
----------------------------------------------|
---2------------------------------------------|
---2------------------------------------------|
---0-0-0-0--0-0-0-----------------------------|
----------------------------------------------|
[_________________P.M_________________________]


Riff 6
----------------------------------------------|
----------------------------------------------|
-----2----2-----------------------------------|
-----2----2-----------------------------------|
---0-0--0-0--0-0------------------------------|
----------------------------------------------|
[_______________P.M___________________________]
Back to riff 5
----------------------------------------------|
----------------------------------------------|
----------------------------------------------|
--3---3---2-----------------------------------|
--3---3---2-----------------------------------|
--3---3---2-----------------------------------|
Continue until end then
|---------|
|---------|
|--2------|
|--2------|
|--0------|
|---------|

Guitar 2
----------------------------------------------|
-20---17--------------------------------------|
----19---19-17-16-----------------------------|
------------------19--------------------------|
----------------------------------------------|
----------------------------------------------|


----------------------------------------------|
-20---17--------------------------------------|
----19---19-17-16-----------------------------|
----------------------------------------------|
----------------------------------------------|
----------------------------------------------|
Repeat until 1:14 then
Riff A
|----------------|
|----------------|
|-2--------------|
|-2--------------|
|-0--------------|
|----------------|x4

|----------------|
|----------------|
|-4--------------|
|-4--------------|
|-2--------------|
|----------------|x2

|----------------|
|----------------|
|-10ó10---9------|
|----------------|
|-8---8---7------|
|----------------|
Repeat Until 1:56 then
-------8-12-8------8-12-8-12-8------------------|
----10--------10-10-----------10-10-------------|
--9-------------9---------------9---------------|
------------------------------------------------|
------------------------------------------------|
------------------------------------------------|
Repeat until end then
|--------|
|--------|
|-2------|
|-2------|
|-0------|
|--------|
Listen for timing
Related for Low tab