Song name
# A B C D E F G H I J K L M N O P Q R S T U V W X Y Z

Architects - Numbers Count For Nothing tab

-------------------------------------------------------------------------------
			     Numbers count for nothing - Architects
-------------------------------------------------------------------------------
C# Standart Tuning (C#, G#, E, B, F#, C#)


C#|-------------------------------------------------------------------------------|
F#|-------------------------------------------------------------------------------|
B  |------------------------------------------------------------------------------|
E   |-----------------------------------------------------------------------------|
G#|--------6-5---2----------------------6-6---------------------------------------|
C#|---0----4-3--4-3-0------1-0-0-4-3-0--4-4---------------------------------------|

 x2

C#|-------------------------------------------------------------------------------|
F#|--------0----------------------------------------------------------------------|
B   |------0----------------------------------------------------------------------|
E   |--2-6-5----2-6---------------------------------------------------------------|
G#|--2-4-3----2-4-3---------------------------------------------------------------|
C#|--0-4-3----0-4-1-4^--4-3-0-----------------------------------------------------|

x2

the next part im not sure but ill edit it soon so this part starts at 0:50

C#|------------------------------------------------------------------------------|
F#|------------------------------------------------------------------------------|
E  |-----------------------------------------------------------------------------|
B  |----------------6--5-------------------6--5--------------------6--5----------|
G#|--------2-------4--3------------2------4--3-------------2------4--3-----------|
C#|--0-1-0----4-3--4--3-3*--0-1-0----4-3--4--3-3*---0-1-0----4-2--4--3-----------|

C#|--------------------------------------------------------------------------------|
F#|--------------------------------------------------------------------------------|
E  |------------------------h7-p4-0-4-1--------------------------------------------|
B  |-----------------6-3-0-------------3-------------------------------------------|
G#|----------5-2-0-----------------------------------------------------------------|
C#|---4-1-0------------------------------------------------------------------------|

both parts x2

C#|--------------------------------------------------------------------------------|
F#|--------------------------------------------------------------------------------|
E  |-------------------------------------------------------------------------------|
B  |---3--3--3--3-let ring-3-3--6------------5--2--2--2-2-2-2-2--------------------|
G#|---2--2--2--2-------2-2---------------4--3--2--2-2-2-2-2-2----------------------|
C#|---1--1--0--1-------0-1-0-0-0-0-0-0-0-4--3--0--0-0-0-0-0-0----------------------|
                                                               .   .   .    .   .   .   .
                                                                        pm


| /  slide up
| \  slide down
| h  hammer-on
| p  pull-off
| ~  vibrato
| +  harmonic
| x  Mute note
===============================================================================
Tap to rate this tab
# A B C D E F G H I J K L M N O P Q R S T U V W X Y Z