Song name
# A B C D E F G H I J K L M N O P Q R S T U V W X Y Z

Architects - Always tab

Help us improve GuitareTab! Take a short survey!
not really a solo but the technical riff half way through the song
i was really annoyed when i couldnt find a tab and i had to work it out so i thought id 
out anyone else who needs it

|--------------------------------------------|
|--------------------------------------------|
|------------10h13-----------------4h5p4-----|
|-------9h12-----------6h9-----6h9------7p6--|
|--8h11------------5h8-----5h8---------------|
|--------------------------------------------|

|---------------------------------------------------|
|------------------------------------12h13p12-------|
|------------10h13-------------13h16---------14p13--|
|-------9h12-------------12h15----------------------|
|--8h11------------11h14----------------------------|
|---------------------------------------------------|

|------------------------------------------------|
|--------------------------------------6h7p6-----|
|------------10h13-----------7h8p7----------8p7--|
|-------9h12------------9h12------10p9-----------|
|--8h11------------8h11--------------------------|
|------------------------------------------------|

|-----------------------------------------------------------------|
|------------------------------------12h13p12---------------------|
|------------10h13-------------13h16---------14p13-9h10p9---------|
|-------9h12-------------12h15---------------------------11p10-0--|
|--8h11------------11h14---------------------------------------0--|
|--------------------------------------------------------------0--|
Related for Always tab