Song name
# A B C D E F G H I J K L M N O P Q R S T U V W X Y Z

Architects - Delete Rewind tab

 Architects - Delete, Rewind
 Album: The Here And Now

 Tuning: Drop D DADGBE

 Intro

 E|------0~~~~-----------------------------|
 B|------0~~~~-----------------------------|
 G|------0~~~~-----------------------------|
 D|------0~~~~-----------------------------|
 A|------0~~~~-----------------------------|
 E|------0~~~~-----------------------------|
 
 Verse

 E|--------------0~-----------0~-----------|
 B|--------------0~-----------0~-----------|
 G|--------------0~-----------0~-----------|
 D|----------------------------------------|
 A|-3~--2-2-2-2------2-2-2-2------2-2-2-2--|
 E|-5~--4-4-4-4------4-4-4-4------4-4-4-4--|

 E|-----------------------------0~---------|
 B|-----------------------------0~---------|
 G|-----------------------------0~---------|
 D|----------------------------------------|
 A|---3------------3~--2-2-2-2------2-2-2-2|
 E|-2---5-3-2-5-5--5~--4-4-4-4------4-4-4-4|
 
 E|-0~---------------------------|
 B|-0~---------------------------|
 G|-0~---------------------------|
 D|------------------------------|
 A|-----2-2-2-2~---3-2~--2~--7~--|
 E|-----4-4-4-4~---5-0~--4~--5~--|
 
 E|--------------0~-----------0~-----------|
 B|--------------0~-----------0~-----------|
 G|--------------0~-----------0~-----------|
 D|----------------------------------------|
 A|-3~--2-2-2-2------2-2-2-2------2-2-2-2--|
 E|-5~--4-4-4-4------4-4-4-4------4-4-4-4--|

 E|-----------------------------0~---------|
 B|-----------------------------0~---------|
 G|-----------------------------0~---------|
 D|----------------------------------------|
 A|---3------------3~--2-2-2-2------2-2-2-2|
 E|-2---5-3-2-5-5--5~--4-4-4-4------4-4-4-4|

 E|-0~-------------------------------------|
 B|-0~-------------------------------------|
 G|-0~-------------------------------------|
 D|-----------------------7-7-11~~~~~~~~~~-|
 A|-----2-2-2-2--3~~-3~~--9-9-9~~~~~~~~~~~-|
 E|-----4-4-4-4--5~~-5~~--9-9-9~~~~~~~~~~~-|

 E|----------------------------------------|
 B|----------------------------------------|
 G|----------------------------------------|
 D|----------------------------------------|
 A|-2~~~~~~~-2--2--2--2--------------------|
 E|-4~~~~~~~-4--4--4--4--------------------|

 E|----------------------------------------|
 B|----------------------------------------|
 G|----------------------------------------|
 D|----------------------------------------|
 A|---2~~-2-2-2~~-2-2-2~~-2-2-2~~-2--------|
 E|-0-4~~-4-4-4~~-4-4-4~~-4-4-4~~-4--------|
Tap to rate this tab
# A B C D E F G H I J K L M N O P Q R S T U V W X Y Z