Song name
# A B C D E F G H I J K L M N O P Q R S T U V W X Y Z

Architects - In The Dessert tab

Tabbed by:Chris l
Email:two_hands_between_us@hotmail.com

Tuning:C G C F A D

Whach out for the rythem and timings because this song is insain this is all i can be 
to do atm and i cant belive known els can be botherd to tab it out architects are a sick band.

  5x                                                 1X
D|------------------------------|  |-------------|
A|----------4------------4------|  |-------------|
F|----------7------------7------|  |-------------|
C|------------------------------|  |-------------|
G|------------------------------|  |-------------|
C|1-0-4-1-0---0-1-0-4-1-0-------|  |-0-0-0-0-0---|

D|---------------------------------------------------------------------------------------------------|
A|-----------4--------------4----------4------------4-----------------------4------------------------|
F|-----------7--------------7----------7------------7-----------------------7------------------------|
C|---------------------------------------------------------------------------------------------------|
G|---------------------------------------------------------------------------------------------------|
C|-1-0-4-1-0---0-1-0-4-1-0---1-0-4-1-0---0-1-0-4-1-0--0-0-0-0-0---1-0-4-1-0----0-0-0-0-0----0-0-0-0-0|

D|-----------------------------------------------------------------------|
A|--4-----------4----------4---------------------------------------------|
F|--7-----------7----------7---------------------------------------------|
C|-----------------------------------------------------------------------|
G|----0-1-4-1-0---0-1-4-1----0-1-4-1-0-----------------------------------|
C|----0-1-4-1-0---0-1-4-1----0-1-4-1-0-4-4-3-3-1-1-3-3-1-1-0-0-1-1-0-----|

===============================================================================
Tap to rate this tab
 
# A B C D E F G H I J K L M N O P Q R S T U V W X Y Z