Song name
# A B C D E F G H I J K L M N O P Q R S T U V W X Y Z

Architecture In Helsinki - Whats In Store tab

The chord Progression for the entire song is BM C#m D#m EM 
I tried to put the chord progression above each riff to help figure out the timing 
but it also helps to listen to the song and play with it. 

Although its never really played if you did want to play the chords they sound 
best played like this

  BM         C#m         D#m         EM
|---|       |---|       |---|       |---|
|-4-|       |-5-|       |-7-|       |-9-|
|-4-|       |-4-|       |-8-|       |-9-|
|-4-|       |-6-|       |-8-|       |-9-|
|---|       |---|       |---|       |---|
|---|       |---|       |---|       |---|


The bass line for the whole thing can be played as

 BM      C#m     D#m     Em
|---------------------------|
|---------------------------|
|-----------------6-------7-|
|-7-------9-----------------|


Guitar Part 1 (this is heard faintly during the synth part)

 BM           C#m      D#m        Em
|--------------------------------------|
|--------------------------------------|
|-8--9--8--13--11----9--8-------6----8-|
|--------------------------------------|
|--------------------------------------|
|--------------------------------------|


Horn Part 1 which is later played by a guitar towards the end of the song
Listen for timing on the song it changes slightly when the guitar plays it

 BM            C#m           D#m           Em
|------------------------------------------------------|
|------------------------------------------------------|
|-------------------------------------------9--8--6s-9-|
|-9--9--99-9-6--9--9--99-9-6--9--9--99-9-6-------------|
|------------------------------------------------------|
|------------------------------------------------------|


Horn Part 2 (this is also played again when the guitar takes over horn part 1)

 BM             C#m        D#m               Em
|---------------------------------------------------|
|---------------------------------------------------|
|---------------------------------------------------|
|-9--9--11-9-8-6----------6-9-999-----------6-9-999-|
|----------------9----6-9----------9----6-9---------|
|---------------------------------------------------|


Guitar Solo

 BM         C#m           D#m           Em
|---------------------------------------12------------|
|-------12-----------12----14---12---12---16-14-12----|
|-11-------------13-----13---13---13---------------13-|
|-----------------------------------------------------|
|-----------------------------------------------------|
|-----------------------------------------------------|

 BM         C#m          D#m           Em
|-----------------------------------------|
|------------------16-----11-----12-------|
|-11--------------------------------------|
|-----------------------------------------|
|-----------------------------------------|
|-----------------------------------------|


This is the distorted electric guitar that is heard faintly in the verses

 BM      C#m     D#m     Em
|---------------------------|
|---------------------------|
|-8-------9------11------13-|
|-9------11------13------14-|
|---------------------------|
|---------------------------|


When the horn parts come back in at the end the electric guitar goes to this

 BM      C#m    D#m    Em
|----------------------------------|
|----------------------------------|
|-4------6-------8------9--8--6s-9-|
|----------------------------------|
|----------------------------------|


Outro Guitar

 BM       C#m       D#m       Em
|----------------------------------|
|----------------------------------|
|-8-8------9--9-----11-11-----13-13|
|-9-9-----11-11-----13-13-----14-14|
|----------------------------------|
|----------------------------------|


Bass Line

 BM      C#m     D#m     Em
|-----------------------------|
|-----------------------------|
|-----------------6-6-----7-7-|
|-7-7-----9-9-----------------|


Horn Part 1

 BM           C#m           D#m           Em
|-------------------------------------------------------|
|-------------------------------------------------------|
|-------------------------------------------------------|
|---6---------------------------------------------------|
|-----9-7-6------------------99-99-99-9-9--99-99-99-9-9-|
|-----------7-------------------------------------------|


Horn Part 2

 BM           C#m              D#m           Em
|-------------------------------------------------------------|
|-------------------------------------------------------------|
|-------------------------------------------------------------|
|-------------------------------------------------------------|
|-----------------------6-6---6-------------------------------|
|----------------7--7-7-----9-----------------77-77-77-7-7----|


End on the BM and thats everything with the exception of the Synth part in the beginning
Tap to rate this tab
 
# A B C D E F G H I J K L M N O P Q R S T U V W X Y Z