Song name
# A B C D E F G H I J K L M N O P Q R S T U V W X Y Z

Archive - Need tab

My first tab...
Great song
email me if it's wrong noegr_gr@msn.com


e|----------------------------------------------------------------|
B|--1---------------3-------------3------------1-----------1------|
G|-------0---------------0------------0------------0--------------|  X2 intro
D|-------------2-------------0------------0------------2----------|
A|--3---------------2-------------1------------0------------------|
E|----------------------------------------------------------------|


e|----------------------------------------------------------------|
B|--1---------------3-------------3------------1-----------1------|
G|-------0---------------0------------0------------0--------------|
D|-------------2-------------0------------0------------2----------|
A|--3---------------2-------------1------------0------------------|
E|----------------------------------------------------------------|

         You've got time          , time on your hands
         Bury your  head           in the sand
         Take your time,           hurry it    up
         Cause it   sits there     and just    drift 
    away


        You've got worries         more than enough
        Course it's rough          you soon know that it's tough
        All that time              , time on your hands
        Cause it sits there         and juste   drift 

        F
        away
                   G
        I need to know
                   Em7            Am7
        I've been sitting into a prayer pew
        F         G
        I need to know
                   Em7            Am7
        There's a little hope inside of you
                 F7
        But that might
         Fm          
        Might not 


e|--------------------------------------------------------------|
B|--1---------------3-------------3------------1-----------1----|
G|-------0---------------0------------0------------0------------|
D|-------------2-------------0------------0------------2--------|
A|--3---------------2-------------1------------0----------------|
E|--------------------------------------------------------------|
        be



         Oh my baby               please look me up
         When you feel that       you've had enough
         You were mine            I was yours
         Sit to see and now drift 


       F
       away
                G
       I need to know
                 Em7             Am7
       I've been sitting into a prayer pew
       F        G
       I need to know
                 Em7             Am7
       There's a little hope inside of you and
       F         G
       I need to know
                 Em7             Am7
       I've been sitting into a prayer pew
       F         G
       I need to know
                 Em7             Am7
       There's a little hope inside of you
                 F7              
       But there might, 
         Fm
       might not be
e|----------------------------------------------------------------|
B|--1---------------3-------------3------------1-----------1------|
G|-------0---------------0------------0------------0--------------|
D|-------------2-------------0------------0------------2----------|
A|--3---------------2-------------1------------0------------------|
E|----------------------------------------------------------------|       
       Might not be (x4)
Tap to rate this tab
# A B C D E F G H I J K L M N O P Q R S T U V W X Y Z