Song name
# A B C D E F G H I J K L M N O P Q R S T U V W X Y Z

Archive - Bridge Scene tab

Artist: Archive
Song: Bridge Scene
Album: Michel Vaillant OST


Intro 0:00
e-----------------------------------|
b------------5-6-5------------------|
g-------7----------7---7------------|
d-----7---7----------7--------------|
a---5-------------------------------|
e-----------------------------------|x8


Verse 0:22
Dm                                 Am  Amsus2
e------------------------------|-------------------||
b------------5-6-5-------------|----1-------0------||
g-------7----------7---7-------|----2-------2------||
d-----7---7----------7---------|----2-------2------||
a---5--------------------------|----0-x8----0-x24--||
e----------------------------x4|-------------------||x3


1:30 (after 2:00: riff still played but not heared)
e-----------------------------------|
b------------5-6-5------------------|
g-------7----------7---7------------|
d-----7---7----------7--------------|
a---5-------------------------------|
e-----------------------------------|

From 2:00: Dm (fading in)

2:16:
Dm (repeat it until 2:42) 
(main riff played in echo)


2:42 (electric)
e-----------------------------------|
b------------5-6-5------------------|
g-------7----------7---7------------|
d-----7---7----------7--------------|
a---5-------------------------------|
e-----------------------------------|x12


Verse 3:14
Dm       x16
Am       x4  
Amsus2   x12
Dm       x16 (main riff played in echo)
Am       x4  
Amsus2   x12
Dm       x10


4:06
Dm x16 A#x8 + main riff + bass riff


4:22
Dm (let ring)


Bass break 4:25



Reprise 4:28 + Dm A#
e-----------------------------------|
b------------5-6-5------------------|
g-------7----------7---7------------|
d-----7---7----------7--------------|
a---5-------------------------------|
e-----------------------------------|

Synth outro 5:14
Dm A# Am


Hope it's right!
beranger80@hotmail.com
Tap to rate this tab
# A B C D E F G H I J K L M N O P Q R S T U V W X Y Z