Song name
# A B C D E F G H I J K L M N O P Q R S T U V W X Y Z

Archive - Again tab

-----------------------------------------------------------------------------
                             Again - Archive
-----------------------------------------------------------------------------
Tabbed by: Clint W

Tuning:Dropped D
D A D G B e

This is just the one riff, you know which one i'm talking about

e|--------------------------------------------------------------------------|
B|--------------------------------------------------------------------------|
G|--------------------------------------------------------------------------|
D|------2---2-3--------2---2--2-3---------------2---2-3--------2---2--2-3---|
A|--------0--------------0------------------------0--------------0--------3-|
D|-0---------------0-----------------------0---------------0----------------|

e|--------------------------------------------------------------------------|
B|--------------------------------------------------------------------------|
G|--------------------------------------------------------------------------|
D|------2---2-3--------2---2--2-3---------------2---2-3--------2---2--2-3---|
A|-1------1-------1------1-----------------1------1--------------1----------|
D|--------------------------------------------------------------------------|
Tap to rate this tab
# A B C D E F G H I J K L M N O P Q R S T U V W X Y Z