Song name
# A B C D E F G H I J K L M N O P Q R S T U V W X Y Z

Arctic Monkeys - Sandtrap tab

Sandtrap 
Arctic Monkeys 
Guitar 1 

4 times: 
E||------------------------|------------------------| 
B||------------------------|------------------------| 
G||------------------------|------------------------| 
D||----------0-------------|--0----------2---0------| 
A||--2---3------3---2---3--|------2---3----------3--| 
E||------------------------|------------------------| 

once 
E||------------------------|------------------------| 
B||--12--10--3-------------|3--3--3--5--1--0--------| 
G||------------------------|------------------------| 
D||------------------------|------------------------| 
A||------------------------|------------------------| 
E||------------------------|------------------------| 

8 times: 
E||------------------------|------------------------| 
B||------------------------|------------------------| 
G||------------------------|------------------------| 
D||----------0-------------|--0----------2---0------| 
A||--2---3------3---2---3--|------2---3----------3--| 
E||------------------------|------------------------| 

3 times 
E||------------------------|------------------------| 
B||------------------------|------------------------| 
G||------------------------|------------------------| 
D||------------------------|------------------------| 
A||------------------------|------------------------| 
E||---7--8--10--8--7---8---|--10--7--8--12--10--8---| 

once 
E||------------------------|--0---------------------| 
B||------------------------|--0---------------------| 
G||------------------------|--0---------------------| 
D||------------------------|------------------------| 
A||------------------------|------------------------| 
E||---7--8--10--12--10--8--|------------------------| 

4 times 
E||------------------------|------------------------| 
B||------------------------|------------------------| 
G||------------------------|------------------------| 
D||-9--10---12--10--9--10--|--12--9--10--14--12--10-| 
A||-9--10---12--10--9--10--|--12--9--10--14--12--10-| 
E||-7--8----10--8---7--8---|--10--7--8---12--10--8--| 

once 
E||------------------------|------------------------| 
B||------------------------|------------------------| 
G||------------------------|------------------------| 
D||--9-9---9-9-9---9-9-9---|-9----------------------| 
A||--9-9---9-9-9---9-9-9---|-9----------------------| 
E||--7-7---7-7-7---7-7-7---|-7----------------------| 

2 times 
E||------------------------|------------------------| 
B||--12--10--3-------------|3--3--3--5--1--0--------| 
G||------------------------|------------------------| 
D||------------------------|------------------------| 
A||------------------------|------------------------| 
E||------------------------|------------------------| 

once 
E||------------------------|------------------------|--- 
B||--12------12-14------14-|-16--------16-18-----18-|--- 
G||------------------------|------------------------|--- 
D||------------------------|------------------------|-9/ 
A||------------------------|------------------------|-9/ 
E||------------------------|------------------------|-7/
Tap to rate this tab
# A B C D E F G H I J K L M N O P Q R S T U V W X Y Z