Guitaretab - guitar tabs
Song name
# A B C D E F G H I J K L M N O P Q R S T U V W X Y Z

Arctic Monkeys - The Death Ramps tab

-------------------------------------------------------------------------------
	           The Death Ramps - Arctic Monkeys
-------------------------------------------------------------------------------
Tabbed by: ben pattyson
Email: benpattyson@yahoo.com

Cos this is an instrumental with many parts I have noted the times over each part so it 
easier to follow.

Guitar 1 riff

e|---------------------------------------------------------------|
B|---------------------------------------------------------------|
G|---------------------------------------------------------------|
D|---------------------------------------------------------------|
A|----------4-4--3-3------------4-4--3-3---------------------1---|
E|-2-2-2-2-------------2-2-2-2------------3-3-3-3-3-3-3-3-3------|

Guitar 2

   0:02             0:10 (bend notes slightly)

e|-8--------------------------------------------|
B|-10---------------13--------------------------|
G|-11---------------15--------------------------|
D|----------------------------------------------|
A|----------------------------------------------|
E|----------------------------------------------|

  0:19

e|-9-8-------------------------|
B|-----7-----------------------|
G|----------6-5----------------|
D|--------------4--------------|
A|-------------------4-3-------|
E|------------------------2----|

 0:52(solo)

e|---------------------------------------------------------------------------|
B|---------------------------------------------------------------------------|
G|---------5-6----6-4--4--2-4---4-4--4-4-2-------------------------------2---|
D|------4----------------------------------4-2-------------2-----------2---4-|
A|---3-----------------------------------------4---2-2-2-4---4---2-4-4-------|
E|-2-------------------------------------------------------------------------|

 1:09

e|---------------------------------------------------------------------|
B|---------------------------------------------------------------------|
G|------------4-4--2-4----2-4-5-4-2---4-2-------------------------2----|
D|----------------------4-----------4-----4-2------------------2----4--|
A|-2-4--2-4-----------------------------------4---2-2-2-2-2--4---------|
E|---------------------------------------------------------------------|

 1:24

e|------------------------------------|
B|------------------------------------|
G|-2----------------------5-6--6-5v---|
D|---4--2-4-------------4-------------|
A|-----------2-4-----3----------------|
E|-----------------2------------------|

 1:37
[ Tab from: http://www.guitaretab.com/a/arctic-monkeys/108731.html ]
e|-----------------------------------------|
B|-----------------------------------------|
G|---2-5-4--2------2-5-4--2----------------| x3
D|-4-----------2-4-----------4--5----5-----|
A|--------------------------------4----4---|
E|-----------------------------------------|

e|-----------------------------|
B|-----------------------------|
G|---2-5-4--2------2-5-4-2-----|
D|-4-----------2-4----------2--|
A|-----------------------------|
E|-----------------------------|

Guitars 1 + 2

 1:57

e|-------------------------------------------------|
B|-------------------------------------------------|
G|-------------------------------------------------| x4
D|-------------------------------------------------|
A|--------4-4-3-3---------4-4-3-3------------------|
E|-2--2-2----------2--2-2----------3--3-3--3--3-3--|

Guitar 2 fills

   2:01      2:08       2:13         2:19

e|---------|---------|-------------|----------|
B|---------|---------|---2---------|----------|
G|-2-4-5---|-2-4-5v--|-2---5-4-2---|-7777v----|
D|---------|---------|-----------4-|----------|
A|---------|---------|-------------|----------|
E|---------|---------|-------------|----------|

Guitars 1 + 2

 2:21

e|------------------------------------|
B|------------------------------------|
G|------------------------------------|
D|------------------------------------|
A|------------------------------------|
E|-2-2--2--2-2--2--2-2--3-3--3-3--3---|

e|------------------------|
B|------------------------|
G|------------------------|
D|------------------------|
A|------------------------|
E|-2-2--2--2-2--2--2-2--3-|

  2:32

e|----------------9-8-------------------------------|
B|--------------------7-----------------------------|
G|--------5-6--6---------6-5------------------------| x2
D|------4--------------------4----------------------|
A|---3-------------------------4-3------------------|
E|-2-------------------------------2-2--3-3-3--3-3--|

e|----------------9-8--------------------------------------|
B|--------------------7------------------------------------|
G|--------5-6--6---------6-5------------4-2---2-44444444v--|
D|------4--------------------4--------------4--------------|
A|---3-------------------------4-3-------------------------|
E|-2-------------------------------2-2---------------------|


e|-9-8----------------------------------|
B|-----7--------------------------------|
G|--------6-5---------------------------|
D|------------4-------------------------|
A|--------------4-3---------------------|
E|------------------2--2-2--3-3-3--3-3--|

e|--------------------|
B|--------------------|
G|--------5-6--6--5v--|
D|------4-------------|
A|---3----------------|
E|-2------------------|

Iím open to any corrections. Cheers.

| v  vibrato
Related for The Death Ramps tab