Song name
# A B C D E F G H I J K L M N O P Q R S T U V W X Y Z

Arctic Monkeys - Put Me In A Terror Pocket tab

Put Me In A Terror Pocket

Not sure about the intro, theres allready a tab up of it


The Riff


e|------------------------------------------------|
B|------------------------------------------------|
G|------------------------------------------------|
D|------------------------------------------------|
A|-------------------------7-10-9-7-10-9-7-9-(X2)-|
E|-7-10-9-7-10-9-7-9-(X4)-------------------------|

e|--------------------------------------------------------|
B|-------------------------11--11-11--11--12-12-12-12--11-|
G|-------------------------11--11-11--11--12-12-12-12--11-|
D|-------------------------11--11-11--11--12-12-12-12--11-|
A|-------------------------9---9--9---9---10-10-10-10--9--|
E|-7-10-9-7-10-9-7-9-(X4)---------------------------------|

Alex then plays Bm then Em 

The bass and Jamie play the riff

You can work out the rest 
Tap to rate this tab
# A B C D E F G H I J K L M N O P Q R S T U V W X Y Z