Song name
# A B C D E F G H I J K L M N O P Q R S T U V W X Y Z

Arctic Monkeys - Fakes Tales Of San Francisco tab

Help us improve GuitareTab! Take a short survey!
Ok, this is mi first time tabbing, I hope you like it, arctic's lovers!

Some questions: lucho_leproso_94@hotmail.com (I'm from Argentina but I can speak english)

Let's start!:


All the song w/ distortion!!

                   Intro/Chorus 1

|------------------------------------------------------|
|------------------------------------------------------|
|-------------------------------------------4----------|  x5
|---0---0-2p0---0---0-2p0---0---0-2p0---0-2---2-0---(0)|
|-2---2-------2---2-------2---2-------2-----------2----|  
|------------------------------------------------------|

()* This only appear after the fifth time you played the Intro/Chorus 1


''I don't want to hear you, kick me out, kick me out''
Here, There aren't guitar sounds, so don't worry and wait for
the Verse 2. (H)


                     Chorus 2

|------------------------------------------------------|
|------------------------------------------------------|
|-------------------------------------------4----------|  x4
|---0---0-2p0---0---0-2p0---0---0-2p0---0-2---2-0---(0)|
|-2---2-------2---2-------2---2-------2-----------2----|  
|------------------------------------------------------|

()* This only appears after the fourth time you played the Chorus 2

''I don't want to hear you, kick me out, kick me out''
Here, There aren't guitar sounds, so relax and wait for the Solo.

                        
                            Solo

|-----------------------------------------------------------|\
|-----------------------------------------------------------| \
|------------------------------55-5-555-55-555-55-555-55-0--|  \
|-55-5-555-55-555-55-555-55-0--55-5-555-55-555-55-555-55-0--|   \
|-55-5-555-55-555-55-555-55-0--33-3-333-33-333-33-333-33-0--|    \
|-33-3-333-33-333-33-333-33-0-------------------------------|     |
                                                                  | x3
|-----------------------------------------------------------|     |
|-----------------------------------------------------------|    / 
|-77-7-777-77-777-77-777-77-0-------------------------------|   /
|-77-7-777-77-777-77-777-77-0--55-5-555-55-555-55-555-55----|  /
|-55-5-555-55-555-55-555-55-0--55-5-555-55-555-55-555-55----| /
|------------------------------33-3-333-33-333-33-333-33----|/

|-----------------------------------------------------------|
|-----------------------------------------------------------|
|------------------------------55-5-555-55-555-55-555-55-0--|
|-55-5-555-55-555-55-555-55-0--55-5-555-55-555-55-555-55-0--|
|-55-5-555-55-555-55-555-55-0--33-3-333-33-333-33-333-33-0--|
|-33-3-333-33-333-33-333-33-0-------------------------------|\
                                                              -  x1
|-----------------------------------------------------------|/
|-----------------------------------------------------------| 
|-77-7-777-77-777-77-777-77-0--88-8-888-88-888-88-888-88----|
|-77-7-777-77-777-77-777-77-0--88-8-888-88-888-88-888-88----|
|-55-5-555-55-555-55-555-55-0--66-6-666-66-666-66-666-66----|
|-----------------------------------------------------------|



                 Final chords

|---7-7--5----7-7--5----7-7--5----7-7--5-(7)----|
|-x-7-7--5--x-7-7--5--x-7-7--5--x-7-7--5-(7)----|
|-----------------------------------------------| x2
|-----------------------------------------------|
|-----------------------------------------------|
|-----------------------------------------------|

()* This only appears after the last chord of the song



I think it's well done, so enjoy it, and...
Questions -------> lucho_leproso_94@hotmail.com

I speak English, Spanish and Italian ;)

Bye people!
Related for Fakes Tales Of San Francisco tab