Song name
# A B C D E F G H I J K L M N O P Q R S T U V W X Y Z

Arctic Monkeys - Chun Li Flying Bird Kick tab

e|----------------------------------------------------------|
B|----------------------------------------------------------|
G|----------------------------------------------------------|
D|----------------------------------------------------------|
A|----3h5r3-------3h5r3-------3h5r3-------3h5r3-------3h5r3-|
E|--5-------3-4-5-------3-4-5-------3-4-5-------3-4-5-------|

e|---------------------------------------|
B|---------------------------------------|
G|---------------------------------------|
D|---------------------------------------|
A|----3h5r3-------3h5r3-------3h5r3h5^6--|
E|--5-------3-4-5-------3-4-5------------|
Tap to rate this tab
# A B C D E F G H I J K L M N O P Q R S T U V W X Y Z