Guitaretab - guitar tabs
Song name
# A B C D E F G H I J K L M N O P Q R S T U V W X Y Z

Arctic Monkeys - Dancing Shoes tab

Dancing shoes
Arctic monkeys
Tabbed by Ryan.c

Like the others itís a great song.the notes are there so you can work the timing out for 
The tabs pretty similar
to the rest only difference is that I did the solo
you can send your feedback to chhang7@hotmail.com

Intro
e--------------------------------------------------|
B--------------------------------------------------|
G--------------------------------------------------|
D-----4-----------4--------------------2-2-2--4-2--| x4
A-------6-2---------6-2---4-4-4--6-4---------------|
E-4-4---------4-4----------------------------------|


Chorus
e------------------------------------------------------|
B------------------------------------------------------|
G-------6--4------------------------6--4---------------|
D-6--4--4--4--6---------------6--4--4--4--6------------|
A-6--4--4--2--4---------------6--4--4--2--4------------|
E-4--2--------4-4-4--2-4------4--2--------4-4-4--4-4---|


e------------------------------------------------------|
B------------------------------------------------------|
G-------6--4------------------------6--4---------------|
D-6--4--4--4--6---------------6--4--4--4--6------------|
A-6--4--4--2--4---------------6--4--4--2--4------------|
E-4--2--------4-4-4--2-4------4--2--------4------------|

Verse ('The lights are flashing'):
e---------------------------------------------------------|
B---------------------------------------------------------|
G---------------------------------------------------------|
D----------------------------------------2-2-2--4-2-------|  x2
A---------------------------4-4-4--6-4--------------------|
E-4-4-4--2-4---4-4-4--2-4---------------------------------|


e--------------------------------------------------|
B--------------------------------------------------|
G--------------------------------------------------|
D-----4-----------4--------------------2-2-2--4-2--|
A-------6-2---------6-2---4-4-4--6-4---------------|
E-4-4---------4-4----------------------------------|


e---------------------------------------------------------|
B---------------------------------------------------------|
G---------------------------------------------------------|
D----------------------------------------2-2-2--4-2-------|
A---------------------------4-4-4--6-4--------------------|
E-4-4-4--2-4---4-4-4--2-4---------------------------------|


Chorus ('The only reason that you came'):
e------------------------------------------------------|
B------------------------------------------------------|
G-------6--4------------------------6--4---------------|
D-6--4--4--4--6---------------6--4--4--4--6------------|
A-6--4--4--2--4---------------6--4--4--2--4------------|
E-4--2--------4-4-4--2-4------4--2--------4-4-4--4-4---|


e------------------------------------------------------|
B------------------------------------------------------|
G-------6--4------------------------6--4---------------|
D-6--4--4--4--6---------------6--4--4--4--6------------|
A-6--4--4--2--4---------------6--4--4--2--4------------|
E-4--2--------4-4-4--2-4------4--2--------4------------|

Solo part
[ Tab from: http://www.guitaretab.com/a/arctic-monkeys/138765.html ]
One guitar plays this
e-------------------------------------------|
B-------------------------------------------|
G-----------------6666666699999999----------|
D-66666666666666666666666699999999----------| x4
A-66666666666666664444444477777777----------|
E-4444444444444444--------------------------|


Another plays this
e--------------------------------------------------------==-|
B-----------------------------------------------------====--|
G-------------------------------9b---------------------=----|
D--------------------------9-------11b-9b------------11-----|
A--11--11-11--9-11-11-9-11---11-----------11-11-9h11----11--|
E-----------------------------------------------------------|

e---------------------------------------------------------|
B---------------------------------------------------------|
G-----11--------------------------------------------------|
D--14----11-14-9-11-----------9----9-11b-9----9-----------|
A--------------------11-11-11---11---------11---11--------|
E---------------------------------------------------------|

e---------------9-9-9----9----9--------------------------|
B-9-9-9----9-12-------12---12---12-9---------------------|
G-------11---------------------------11------------------|
D---------------------------------------14-11-9----------|
A--------------------------------------------------------|
E--------------------------------------------------------|

e---------------------------------------------------------|
B---------------------------------------------------------|
G---------------------------------------------------------|
D--9-11-9-11-9-11b-9-11-11b-9-11-9---------9--------------|
A----------------------------------11-9-11---11-----------|
E---------------------------------------------------------|

e--------------------------------------------------------------|
B--------------------------------------------------------------|
G--------------------------------------------------------------|
D---------------9-9-9-9--18-18-18-18--11-11-11-11--11--11-9----|
A--11-11-11-11----------------------------------------------11-|
E--------------------------------------------------------------|


e------------------------------------------------|
B------------------------------------------------|
G------------------------------------------------| x2
D-----4----------4-------------------2-2-2--4-2--|
A-------6-2--------6-2---4-4-4--6-4--------------|
E-4-4---------4-4--------------------------------|

e---------------------------------------------------|
B---------------------------------------------------|
G------------------6-6-6-6-9-9-9-9------------------|
D--6-6-6-6-6-6-6-6-6-6-6-6-9-9-9-9------------------|  x2
A--6-6-6-6-6-6-6-6-4-4-4-4-7-7-7-7------------------|
E--4-4-4-4-4-4-4-4----------------------------------|


Outro
e-----------------------------------------------------------|
B-----------------------------------------------------------|
G-----------------------------------------------------------|
D--6-6-6--4-6-----6-6-6--4-6-----6-6-6--4-6-----6-6-6--4-6--|
A--6-6-6--4-6-----6-6-6--4-6-----6-6-6--4-6-----6-6-6--4-6--|
E--4-4-4--2-4-----4-4-4--2-4-----4-4-4--2-4-----4-4-4--2-4--|
Related for Dancing Shoes tab