Song name
# A B C D E F G H I J K L M N O P Q R S T U V W X Y Z

Arctic Monkeys - Love Machine tab

-------------------------------------------------------------------------------
			     Love Machine - Band Name
-------------------------------------------------------------------------------
Tabbed by:Yamaha Hero
Email:jack-triviumgod95@hotmail.co.uk

Tuning:standard

e|-----------------------------------------------------------------------------|
B|-----------------------------------------------------------------------------|
G|------333h2-0-----------This is played three times---------------------------|
D|----5------------------------------------------------------------------------|
A|-----------------------------------------------------------------------------|
E|--3--------------------------------------------------------------------------|

e|---------------------------------------------------------------------------|
B|---------------------------------------------------------------------------|
G|---------------------------------------------------------------------------|
D|-------3333----------------------------------------------------------------|
A|---111---------------------------------------------------------------------|
E|---------------------------------------------------------------------------|
           Verse
e|---------------------------------------------------------------------------|
B|---------------------------------------------------------------------------|
G|----6----------------------------------------------------------------------|
D|----5----------------------------------------------------------------------|
A|----5----------------------------------------------------------------------|
E|----3----------------------------------------------------------------------|
played 12 times

         Verse part 2
e|---------------------------------------------------------------------------|
B|---------------------------------------------------------------------------|
G|----777--------------------------------------------------------------------|
D|----888--10101010----------------------------------------------------------|
A|----888--10101010----------------------------------------------------------|
E|----666--8-8-8-8-----------------------------------------------------------|

verse 1 and 2 played twice

thnx this was my first tab so please comment or email me :)
Tap to rate this tab
# A B C D E F G H I J K L M N O P Q R S T U V W X Y Z