Song name
# A B C D E F G H I J K L M N O P Q R S T U V W X Y Z

Arctic Monkeys - Space Invaders tab

|---------------------------------------------------------------------------------------------|
|---------------------------------------------------------------------------------------------|
|--12-12-12-12-12b13--12-10----------------10-----10-12-12b13--12-10-------------------10-12--|
|---------------------------12-12-9/10--12-----12--------------------12-12-------10-12--------|
|--------------------------------------------------------------------------10-12--------------|
|---------------------------------------------------------------------------------------------|

|----------------------------------------------------------------------------------|
|----------------------------------------------------------------------------------|
|--10-12-12b13-12--10----------------10----10-12-12b13--12-10-------------------10-|
|----------------------12-12-9/10--12----12--------------------12-12-------10-12---|
|--------------------------------------------------------------------10-12---------|
|----------------------------------------------------------------------------------|

guitar 2 plays the D chord several times

|------------------------------------------|-------------------------------------------|
|------------------------------------------|-------------------------------------------|
|--12b13--12b13--12b13--12b13--12-12-10----|--------10-12b13--12-10-12-10-12b13--10----|
|---------------------------------------12-|--10-12---------------------------------12-|
|------------------------------------------|-------------------------------------------|
|------------------------------------------|-------------------------------------------|

|----------------------------------------------------------------------------------------|
|----------------------------------------------------------------------------------------|
|-----10-12-10-------10-12-10-12-12b13--12-10-12-10-------------10-12-12b13--12-10-12-10-|
|--12----------10-12--------------------------------12-10-10-12--------------------------|
|----------------------------------------------------------------------------------------|
|----------------------------------------------------------------------------------------|

Doublebend
|-------------------------------------------------------------------------------------------|
|--------------------------b13--------------------------------b13---------------------------|
|--------------10-12-12b13-----13b12--10----------10-12-12b13-----13b12--10----------10-12--|
|--12-10-10-12---------------------------12-10-12---------------------------12-10-12--------|
|-------------------------------------------------------------------------------------------|
|-------------------------------------------------------------------------------------------|

|-----------------------------------------------|
|-----------------------------------------------|
|--12b13--12b13--12b13--12-10-------------10----|
|-----------------------------12-9/10--12----12-|
|-----------------------------------------------|
|-----------------------------------------------|

|----------------------------------------------------|----------------------------------|
|----------------------------------------------------|----------------------------------|
|----------------------------------------------------|------------10-12-12b13--12-10----|
|----------------------------------------------------|------10-12--------------------12-|
|--------8-10b11--10-8-10-8-10b11--10-8-------8-10-8-|----------------------------------|
|--10-10--------------------------------10-10--------|-8-10-----------------------------|

|---------------------------------------------------------------------10----10-13-10-13-|
|------------------------------------------------------10-13-10-10-13----13-------------|
|--------------10----10-12-12b13--12-10----------10-12----------------------------------|
|--12-9/10--12----12--------------------12-12-12----------------------------------------|
|---------------------------------------------------------------------------------------|
|---------------------------------------------------------------------------------------|

|--15-13-15-15b16-----13-15-13-15b16-----13-15-13-15b16-----13-15-13----------13----|
|------------------15-----------------15-----------------15----------15-13-15----15-|
|-----------------------------------------------------------------------------------|
|-----------------------------------------------------------------------------------|
|-----------------------------------------------------------------------------------|
|-----------------------------------------------------------------------------------|

|--15b16--15b16--15b16--15b16--15b16-|
|------------------------------------|
|------------------------------------|
|------------------------------------|
|------------------------------------|
|------------------------------------|
Tap to rate this tab
# A B C D E F G H I J K L M N O P Q R S T U V W X Y Z