Song name
# A B C D E F G H I J K L M N O P Q R S T U V W X Y Z

Arctic Monkeys - Da Frame 2r tab

------------------------------------------------------------------------------
			           DA FRAME 2R - Arctic Monkeys
------------------------------------------------------------------------------
Tabbed by: Anzelmo

Tuning: Standard

INTRO:
Guitar 1 & 2

e|----------------------------------------------|
B|----------------------------------------------|
G|--------------------------------------------7-|
D|--9-9-9-9-9-9-9-9-9-9-9-9-9-9-9-9--5--7--9--7-|
A|--9-9-9-9-9-9-9-9-9-9-9-9-9-9-9-9--5--7--9--5-|
E|--7-7-7-7-7-7-7-7-7-7-7-7-7-7-7-7--3--5--7----|



Verse 1:
Bass
e|-------------------|
B|-------------------|
G|-------------------|
D|-----0-4-4-3---2-0-| x12
A|-2-2---------4-----|
E|-------------------|

Guitar 1
e|---------------------------------------------------|
B|---------------------------------------------------|
G|---------------------------------------------------|
D|-----0-4~-------------0-2-4-2-0--------------------|
A|-2-2----------------------------2-0-2--------------|
E|---------------------------------------------------|

On 8th:
e|------------------|
B|------------------|
G|------------------|
D|-----0-4~---------|
A|-2-2--------------|
E|------------------|



Chorus:
Both guitars:

e|-------------------|
B|-------------------|
G|-------------------|
D|------4-4-3---2-0--| x3
A|-2-2--------4------|
E|-------------------|

Then:
e|--------------|
B|--------------|
G|--------------|
D|--------8-----|
A|--10-12---9---|
E|--------------|



Post chorus:
Guitar 1
e|-------------------|
B|-------------------|
G|-------------------|
D|-----0-4-4-3---2-0-|\ 
A|-2-2---------4-----| \ 
E|-------------------|  \
                         \ x3 
Guitar 2                 / 
e|-------------------|  /
B|-------7-7-6-------| /
G|--4-4--------6-5-3-|/
D|-------------------|
A|-------------------|
E|-------------------|



Then
Guitar 1
e|-----------------------------|
B|-----------------------------|
G|-----------------------------|
D|-----0-4-4-3---0-2-4-2-0-----|
A|-2-2---------------------2-0-|
E|-----------------------------|
                      
Guitar 2              
e|-------------------|
B|-------7-7-6-------|
G|--4-4--------------|
D|-------------------|
A|-------------------|
E|-------------------|



Verse 2:
Guitar 1:
e|-------------------|
B|-------------------|
G|-------------------|
D|-----0-4-4-3---2-0-| x3
A|-2-2---------4-----|
E|-------------------|

e|-------------------|
B|-------------------|
G|-------------------|
D|-----0-4-4-3--xxx--|
A|-2-2---------------|
E|-------------------|

e|-------------------|
B|-------------------|
G|-------------------|
D|-----0-4-4-3---2-0-| x4
A|-2-2---------4-----|
E|-------------------|


Guitar 2:
e|----------------------|
B|-15--12--10-12--15-15-|
G|----------------16-16-|
D|----------------------| x3
A|----------------------|
E|----------------------|

e|----------------------|
B|-15--12--10-12--------|
G|----------------------|
D|----------------------|
A|----------------------|
E|----------------------|

e|----------------------|
B|-15--12--10-12--15-15-|
G|----------------16-16-|
D|----------------------| x3
A|----------------------|
E|----------------------|



Chorus:
Both guitars:

e|-------------------|
B|-------------------|
G|-------------------|
D|------4-4-3---2-0--| x3
A|-2-2--------4------|
E|-------------------|

Then:
e|--------------|
B|--------------|
G|--------------|
D|--------8-----| x4
A|--10-12---9---|
E|--------------|



Bridge:
Guitar 1 & 2
e|----------------------------------|
B|----------------------------------|
G|----------------------------------|
D|--9-9-9-9-9-9-9-9-9-9-9-9-9-9-9-9-|
A|--9-9-9-9-9-9-9-9-9-9-9-9-9-9-9-9-|
E|--7-7-7-7-7-7-7-7-7-7-7-7-7-7-7-7-|



Then:
Guitar 1:
e|---------------------------------------------------|
B|---------------------------------------------------|
G|---------------------------------------------------|\
D|-----0-4~-----------------0-16-15~-----------------| \
A|-2-2------------------2-2--------------------------|  \ x2
E|---------------------------------------------------|  / 
Guitar 2:                                              /
e|------------------------------------------------|   /
B|------------------------------------------------|  /
G|----------------------------------------------7-| /
D|--9-9-9-9-9-9-9-9-9-9-9-9-9-9-9-9-9--5--7--9--7-|/
A|--9-9-9-9-9-9-9-9-9-9-9-9-9-9-9-9-9--5--7--9--5-|
E|--7-7-7-7-7-7-7-7-7-7-7-7-7-7-7-7-7--3--5--7----|

Both guitars:
e|------------------------------------------------|
B|------------------------------------------------|
G|----------------------------------------------7-|
D|--9-9-9-9-9-9-9-9-9-9-9-9-9-9-9-9-9--5--7--9--7-|
A|--9-9-9-9-9-9-9-9-9-9-9-9-9-9-9-9-9--5--7--9--5-|
E|--7-7-7-7-7-7-7-7-7-7-7-7-7-7-7-7-7--3--5--7----|

e|------------------------------------------------|
B|------------------------------------------------|
G|------------------------------------------------|
D|--9-9-9-9-9-9-9-9-9-9-9-9-9-9-9-9-9--5--7--9----|
A|--9-9-9-9-9-9-9-9-9-9-9-9-9-9-9-9-9--5--7--9----|
E|--7-7-7-7-7-7-7-7-7-7-7-7-7-7-7-7-7--3--5--7----|



Outro:
e|-------------------|
B|-------------------|
G|-------------------|
D|-----0-4-4-3---2-0-| x8
A|-2-2---------4-----|
E|-------------------|


| /  slide up
| \  slide down
| h  hammer-on
| p  pull-off
| ~  vibrato
| +  harmonic
| x  Mute note
===============================================================================
Tap to rate this tab
# A B C D E F G H I J K L M N O P Q R S T U V W X Y Z