Song name
# A B C D E F G H I J K L M N O P Q R S T U V W X Y Z

Arctic Monkeys - Crying Lightning Live tab

Arctic Monkeys - Crying Lightning (Live BDO Sydney) 

This tab is only for Jamie's parts (Guitar 2) 

0:11 to 0:20
|-----5---7------5-------8-------5------|
|---5----------5-------8---8-9---5------|
|-5----------5-------9-----------5------|
|---------------------------------------|
|---------------------------------------|
|---------------------------------------|

0:38 to 0:55

|-----5---7------5-------8-------5----7----5--------8---------|
|---5----------5-------8---8-9---5----5----5------8---8-9s17--|
|-5----------5-------9-----------5----5----5----9-------------|
|-------------------------------------------------------------|
|-------------------------------------------------------------|
|-------------------------------------------------------------|

1:05 to 1:13

|------------------|
|------------------|
|------------------|
|------------------|
|-----------7-6----|
|-5-5-5-5-8-----4--| x4

1:14 to 1:21

|------------------|
|------------------|
|------------------|
|------------------|
|---7---6-------6--|
|-8---5---5-8-5----| x4

1:23 to 1:40

|-5s13-5s12-5s10-8s4-|
|--------------------|
|--------------------|
|--------------------|
|--------------------|
|--------------------| x2

1:41 to 1:57

|-5s13-17s12-5s10-8s4-|
|---------------------|
|---------------------|
|---------------------|
|---------------------|
|---------------------| x2

1:58 to 2:24

|--------------10----------------5-------|
|----9-7-------10-------9-7-5----5-------|
|-10-----7-10--10----10-------7--5-------|
|----------------------------------------|
|----------------------------------------|
|----------------------------------------| x3

2:25 to 2:29

|--------------10-|
|----9-7-------10-|
|-10-----7-10--10-|
|-----------------|
|-----------------|
|-----------------|


2:34 to 2:56

|------------------|
|------------------|
|------------------|
|------------------|
|-----------7-6----|
|-5-5-5-5-8-----4--| x10

2:57 to 3:05

|------------------|
|------------------|
|------------------|
|------------------|
|---7---6-------6--|
|-8---5---5-8-5----| x4 

3:23 to 3:49

|--------------10----------------5-------|
|----9-7-------10-------9-7-5----5-------|
|-10-----7-10--10----10-------7--5-------|
|----------------------------------------|
|----------------------------------------|
|----------------------------------------| x3

3:50 to 3:57


|-------------------|
|----9-7-5---5-7v---|
|-10-------7--------|
|-------------------|
|-------------------|
|-------------------|

That's it. Enjoy

Tap to rate this tab
# A B C D E F G H I J K L M N O P Q R S T U V W X Y Z