Song name
# A B C D E F G H I J K L M N O P Q R S T U V W X Y Z

Arctic Monkeys - My Propeller tab

My Propeller
By The Arctic Monkeys


*For the E and the G in the intro and outros you can play them as power chords if you 
like.
I tabbed this by ear im pretty sure it's right, hope it helps.

Intro
e|---0-----3-----|---0-----0-----0-----------------|
B|---0-----3-----|---1-----1-----1-----------------|
G|---1-----4-----|---0-----2-----0-----------------|
D|---2-----5-----|---2-----2-----2-----------------|
A|---2-----5-----|---3-----0-----3---3-2-0---------|
E|---0-----3-----|-------------------------3-0-----|


Verse
e|---------------------------|
B|---------------------------|
G|---------------------------|
D|---------------------------|
A|-------2---0-----0---2-----|
E|---0-0---0---3-3---3-------|


Bridge
e|--------------------------------------|
B|-------------------/5---7---8-7-5-----|
G|---5---4------/4--------8---9-7-4-----|
D|-----4---3----/5---/5-----------------|
A|--------------------------------------|
E|--------------------------------------|


First solo
e|---------------------------------------------------------------------------|
B|--------12-10-13-12-10-12-10h12p10-----------12-10-13-12-10-12-10----------|
G|---9-12----------------------------12---9-12----------------------12-9-----|
D|---------------------------------------------------------------------------|
A|---------------------------------------------------------------------------|
E|---------------------------------------------------------------------------|


Chorus/Outro
e|---0-----3-----|
B|---0-----3-----|
G|---1-----4-----|
D|---2-----5-----|
A|---2-----5-----|
E|---0-----3-----|
Tap to rate this tab
# A B C D E F G H I J K L M N O P Q R S T U V W X Y Z