Song name
# A B C D E F G H I J K L M N O P Q R S T U V W X Y Z

Arctic Monkeys - Dance Little Liar tab

-------------------------------------------------------------------------------
			     DANCE LITTLE LIAR - Arctic Monkeys
-------------------------------------------------------------------------------
Tabbed by: Anzelmo

Intro/ Verse 1:
e|---------------------------------------------------------------------------|
B|---------------------------------------------------------------------------|
G|---------------------------------------------------------------------------|
D|---------------------------------------------------------------------------|
A|---4--/6-------------------------------------------------------------------|
E|-----------2---------------------------------------------------------------|


Chorus:
    A               f#      c#              E
e|--5-5-5-5-5-5-5-5-2-2-2-2-4-4-4-4-4-4-4-4-0-0-0-0--|
B|--5-5-5-5-5-5-5-5-2-2-2-2-5-5-5-5-5-5-5-5-0-0-0-0--|
G|--6-6-6-6-6-6-6-6-2-2-2-2-6-6-6-6-6-6-6-6-1-1-1-1--|
D|--7-7-7-7-7-7-7-7-4-4-4-4-6-6-6-6-6-6-6-6-2-2-2-2--|
A|--7-7-7-7-7-7-7-7-4-4-4-4-4-4-4-4-4-4-4-4-2-2-2-2--|
E|--5-5-5-5-5-5-5-5-2-2-2-2-4-4-4-4-4-4-4-4-0-0-0-0--|
 |       gtr2:                                       |
e|---------------------------------------------------|
B|---------------------------------------------------|
G|---------------------------------------------------|
D|---------------------------------------------------|
A|---------------------------------------------------|
E|--5~~-------------2~~-----4~~-------------0~~------|

    f#      E       g#
e|--2-2-2-2-0-0-0-0-4-4-4-4--|
B|--2-2-2-2-0-0-0-0-4-4-4-4--|
G|--2-2-2-2-1-1-1-1-4-4-4-4--|
D|--4-4-4-4-2-2-2-2-6-6-6-6--|
A|--4-4-4-4-2-2-2-2-6-6-6-6--|
E|--2-2-2-2-0-0-0-0-4-4-4-4--|
 |       gtr 2:              |
e|---------------------------|
B|---------------------------|
G|---------------------------|
D|---------------------------|
A|---------------------------|
E|--2~~-----0~~-----4~~-----4|

Post chorus:
    c#      g#      f#
e|--4-4-4-4-4-4-4-4-2-2-2-2--|
B|--5-5-5-5-4-4-4-4-2-2-2-2--|
G|--6-6-6-6-4-4-4-4-2-2-2-2--|
D|--6-6-6-6-6-6-6-6-4-4-4-4--| x4
A|--4-4-4-4-6-6-6-6-4-4-4-4--|
E|--4-4-4-4-4-4-4-4-2-2-2-2--|

2nd guitar plays intro

Verse 2:
REST x4
e|-------------------|
B|-------------------|
G|-------------------| x4
D|-------------------|
A|---4--/6-----------|
E|-----------2-------|

Chorus 2:
Only 2nd guitar, same as chorus 1

Bridge:
   c#              g#              A               c#      E       f#
e|-4-4-4-4-4-4-4-4-4-4-4-4-4-4-4-4-5-5-5-5-5-5-5-5-4-4-4-4-7-7-7-7-9--|
B|-5-5-5-5-5-5-5-5-4-4-4-4-4-4-4-4-5-5-5-5-5-5-5-5-5-5-5-5-9-9-9-9-11-|
G|-6-6-6-6-6-6-6-6-4-4-4-4-4-4-4-4-6-6-6-6-6-6-6-6-6-6-6-6-9-9-9-9-11-|
D|-6-6-6-6-6-6-6-6-6-6-6-6-6-6-6-6-7-7-7-7-7-7-7-7-6-6-6-6-9-9-9-9-11-|
A|-4-4-4-4-4-4-4-4-6-6-6-6-6-6-6-6-7-7-7-7-7-7-7-7-4-4-4-4-7-7-7-7-9--|
E|-4-4-4-4-4-4-4-4-4-4-4-4-4-4-4-4-5-5-5-5-5-5-5-5-4-4-4-4-7-7-7-7-9--|
 |       gtr2:                                                        |
e|--------------------------------------------------------------------|
B|--------------------------------------------------------------------|
G|--------------------------------------------------------------------|
D|--------------------------------------------------------------------|
A|-----------------4~~-----------------------------4~~-----7~~-----9~~|
E|-2~~-----------------------------2~~--------------------------------|


   f#                      E                               g#    g#
e|-9--9--9--9--9--9--9--9--7-7-7-7-7-7-7-7-7-7-7-7-7-7-7-7-11----11---|
B|-11-11-11-11-11-11-11-11-9-9-9-9-9-9-9-9-9-9-9-9-9-9-9-9-12----12---|
G|-11-11-11-11-11-11-11-11-9-9-9-9-9-9-9-9-9-9-9-9-9-9-9-9-13----13---|
D|-11-11-11-11-11-11-11-11-9-9-9-9-9-9-9-9-9-9-9-9-9-9-9-9-13----13---|
A|-9--9--9--9--9--9--9--9--7-7-7-7-7-7-7-7-7-7-7-7-7-7-7-7-11----11---|
E|-9--9--9--9--9--9--9--9--7-7-7-7-7-7-7-7-7-7-7-7-7-7-7-7-11----11---|
 |       gtr2:                                                        |
e|--------------------------------------------------------------------|
B|--------------------------------------------------------------------|
G|--------------------------------------------------------------------|
D|--------------------------------------------------------------------|
A|-9~~---------------------7~~-------------7~~-------------11----11---|
E|--------------------------------------------------------------------|

Solo:
e|--------------------------------------------|
B|--------------------------------------------|
G|--------------------------------------------|
D|--------------------------------------------| x2
A|-4-4-4-4--7----4-4-4-4--7-----4-4-4----7----|
E|--------------------------------------------|

e|--------------------------------------------|
B|--------------------------------------------|
G|--------------------------------------------|
D|--------------------------------------------|
A|-4-4-4-4--7----4-4-4-4--7-----4-4-4----7----|
E|--------------------------------------------|           \
 |       gtr2:                                |            x4
e|--------------------------------------------|           /
B|-9~~-----------2~~--------------------------|
G|--------------------------------------------|
D|--------------------------------------------|
A|--------------------------------------------|
E|--------------------------------------------|

e|--------------------------------------------|
B|--------------------------------------------|
G|--------------------------------------------|
D|--------------------------------------------|
A|-4-4-4-4--7----4-4-4-4--7-----4-4-4----7----|
E|--------------------------------------------|           \
 |       gtr2:                                |            x4
e|-12-12-12-9----12-12-12-9-----12-12----9----|           /
B|--------------------------------------------|
G|--------------------------------------------|
D|--------------------------------------------|
A|--------------------------------------------|
E|--------------------------------------------|


   A               f#      c#              E       f#              E       c#            g#
e|-5-5-5-5-5-5-5-5-2-2-2-2-4-4-4-4-4-4-4-4-0-0-0-0-2-2-2-2-2-2-2-2-0-0-0-0-4-4-4-4-4-4-4-4-|
B|-5-5-5-5-5-5-5-5-2-2-2-2-5-5-5-5-5-5-5-5-0-0-0-0-2-2-2-2-2-2-2-2-0-0-0-0-5-5-5-5-5-5-5-4-|
G|-6-6-6-6-6-6-6-6-2-2-2-2-6-6-6-6-6-6-6-6-1-1-1-1-2-2-2-2-2-2-2-2-1-1-1-1-6-6-6-6-6-6-6-4-|
D|-7-7-7-7-7-7-7-7-4-4-4-4-6-6-6-6-6-6-6-6-2-2-2-2-4-4-4-4-4-4-4-4-2-2-2-2-6-6-6-6-6-6-6-6-|
A|-7-7-7-7-7-7-7-7-4-4-4-4-4-4-4-4-4-4-4-4-2-2-2-2-4-4-4-4-4-4-4-4-2-2-2-2-4-4-4-4-4-4-4-6-|
E|-5-5-5-5-5-5-5-5-2-2-2-2-4-4-4-4-4-4-4-4-0-0-0-0-2-2-2-2-2-2-2-2-0-0-0-0-4-4-4-4-4-4-4-4-|
 |       gtr2:                                                                           
 |
e|--9-9-12-9-9-12-9-12---9-9-12-9-9-12-9-12------9-9-12-9-9-12-9-12---9-9-12-9-9-12-9-12---|
B|-----------------------------------------------------------------------------------------|
G|-----------------------------------------------------------------------------------------|
D|-----------------------------------------------------------------------------------------|
A|-----------------------------------------------------------------------------------------|
E|-----------------------------------------------------------------------------------------|

Outro:
   A               f#      c#              E       f#              E       g#
e|-5-5-5-5-5-5-5-5-2-2-2-2-4-4-4-4-4-4-4-4-0-0-0-0-2-2-2-2-2-2-2-2-0-0-0-0-4-4-4-4-4-4-4-4~|
B|-5-5-5-5-5-5-5-5-2-2-2-2-5-5-5-5-5-5-5-5-0-0-0-0-2-2-2-2-2-2-2-2-0-0-0-0-4-4-4-4-4-4-4-4~|
G|-6-6-6-6-6-6-6-6-2-2-2-2-6-6-6-6-6-6-6-6-1-1-1-1-2-2-2-2-2-2-2-2-1-1-1-1-4-4-4-4-4-4-4-4~|
D|-7-7-7-7-7-7-7-7-4-4-4-4-6-6-6-6-6-6-6-6-2-2-2-2-4-4-4-4-4-4-4-4-2-2-2-2-6-6-6-6-6-6-6-6~|
A|-7-7-7-7-7-7-7-7-4-4-4-4-4-4-4-4-4-4-4-4-2-2-2-2-4-4-4-4-4-4-4-4-2-2-2-2-6-6-6-6-6-6-6-6~|
E|-5-5-5-5-5-5-5-5-2-2-2-2-4-4-4-4-4-4-4-4-0-0-0-0-2-2-2-2-2-2-2-2-0-0-0-0-4-4-4-4-4-4-4-4~|
 |       gtr2:                                                                           
 |    End
e|-----------------------------------------------------------------------------------------|
B|-9~~------2~~-----x7---------------------------------------8th:---9~~------1~~---------9~|
G|-----------------------------------------------------------------------------------------|
D|-----------------------------------------------------------------------------------------|
A|-----------------------------------------------------------------------------------------|
E|-----------------------------------------------------------------------------------------|

That's all ;)

Please comment and rate ;]
Tap to rate this tab
 
# A B C D E F G H I J K L M N O P Q R S T U V W X Y Z