Song name
# A B C D E F G H I J K L M N O P Q R S T U V W X Y Z

Arctic Monkeys - View From The Afternoon tab

-------------------------------------------------------------------------------
			     VIEW FROM THE AFTERNOON - Arctic Monkeys
-------------------------------------------------------------------------------
Tabbed by: Gibson2471


Tuning: Standard
e|------------------------------------|
B|------------------------------------|
G|-------7----------------------------|
D|---7---7----x4 You can work it out--|
A|---7---6----------------------------|
E|---5--------------------------------|

e|------------------------------------------------|
B|------------------------------------------------|
G|-----------5---10-------9-----------9-----------|
D|---7---5---5---10---7---9---9---9---9-------x2--|
A|---7---5---3---8----7---7---9---9---7-----------|
E|---5---3------------5-------7---7---------------|
Then on the third time play this:
e|---------------------------------------------------------------------------------------|
B|---------------------------------------------------------------------------------------|
G|-----------5--10-----9------7--9-------------------------------------------------------|
D|-----7--5--5--10--7--9--10--7--9-------------------------------------------------------|
A|-----7--5--3--8---7--7--10--5--7-------------------------------------------------------|
E|-----5--3---------5-----8--------------------------------------------------------------|
Play through those chords x2 all together before playing below
e|----------------------------------------------------------------------------------|
B|----------------------------------------------------------------------------------|
G|----------------------------------------------------------------------------------|
D|--3--5--2-------------------------------------------------------------------------|
A|--3--5--2----x4-------------------------------------------------------------------|
E|--5--3--0-------------------------------------------------------------------------|

Not the hole song other good tabs on here to show you that just wanted to clear up what 
I think Jamie plays those crazy chords, Thanks.
Tap to rate this tab
 
# A B C D E F G H I J K L M N O P Q R S T U V W X Y Z