Song name
# A B C D E F G H I J K L M N O P Q R S T U V W X Y Z

Arctic Monkeys - Pretty Visitors tab

-------------------------------------------------------------------------------
			     Pretty Visitors  - Arctic Monkeys
-------------------------------------------------------------------------------
Tabbed by: Gibson2471
Email:

Tuning: Drop D

e|------------------------------------------------------------------------------|
B|------------------------------------------------------------------------------|
G|------------------------------------------------------------------------------|
D|------------------------------------------------------------------------------|
A|------------------------------------------------------------------------------|
E|----4-4-4-0-0-0-4---4-4-4-0-0-0-4---9-9-9-4-4-4-9-9-9-7-7-7-4-4-4-0-0-0-4-x2--|

e|-------------------------------------------------------------------------------|
B|-------------------------------------------------------------------------------|
G|-------------------------------------------------------------------------------|
D|-------------------------------------------------------------------------------|
A|-------4------5----------------------------------------------------------------|
E|----4-----4--------------------------------------------------------------------|

e|------------------------------------------------------------------------------------|
B|------------------------------------------------------------------------------------|
G|------------------------------------------------------------------------------------|
D|------------------------------------------------------------------------------------|
A|-------------0-4--5-5-5-------------------------------------------------------------|
E|----4-4-4--4-------------6---------x7-----------------------------------------------|

e|------------------------------------------------------------------------|
B|------------------------------------------------------------------------|
G|------------------------------------------------------------------------|
D|------------------------------------------------------------------------|
A|------------------------------------------------------------------------|
E|---4-4-4-0-0-0-4--4-4-4-0-0-0-4--9-9-9-4-4-4-9-9-9-7-7-7-4-4-4-0-0-0-4--|

e|------------------------------------------------------------|
B|------------------------------------------------------------|
G|------------------------------------------------------------|
D|------------------------------------------------------------|
A|------------------------------------------------------------|
E|---4-4-4-0-0-0-4--4-4-4-0-0-0-4--9-9-9-4-4-4-9-9-9-7-7-7-4--|

e|-----------------------------------------|
B|-----------------------------------------|
G|-----------------------------------------|
D|-----------------------------------------|
A|-------------0--4---5-5-5----------------|
E|----4-4-4--4---------------6----x8 or 7--|

e|-----------------------------------------------------------------------------------|
B|-----------------------------------------------------------------------------------|
G|-----------------------------------------------------------------------------------|
D|------------0--4--3-----3--4-------------------------------------------------------|
A|------5--4-----------4--------4-----x4---------------------------------------------|
E|---4-------------------------------------------------------------------------------|

e|-----------------------------------------------|
B|-----------------------------------------------|
G|-----------------------------------------------|
D|-----------------------------------------------|
A|-----------------------------------------------|
E|----4-4-4-4-4-4-4-0-4--something like that-x5--|

e|--------------------------------------------------------------------|
B|--------------------------------------------------------------------|
G|--------------------------------------------------------------------|
D|--------------------------------------------------------------------|
A|-------------0--4----5-5-5------------------------------------------|
E|--4-4-4---4---------------6-----play that till the end really slow--|

Feel free to suggest corrections in the comments!!

| /  slide up
| \  slide down
| h  hammer-on
| p  pull-off
| ~  vibrato
| +  harmonic
| x  Mute note
===============================================================================
Tap to rate this tab
 
# A B C D E F G H I J K L M N O P Q R S T U V W X Y Z