Song name
# A B C D E F G H I J K L M N O P Q R S T U V W X Y Z

Arctic Monkeys - Dancing Shoes tab

I had been looking for this solo for a while, but decided to give it a try
myself.  Sounds pretty accurate, to me at least.  Enjoy.

e|-------------------------------------------------------------------------|
b|----------------------6b---------------------7---------------------------|
g|------------------4h6----6b-4b---------4-6s8---6-8-4-6p4-----------4-6p4-|
d|---6-6-4-6-6-4h5h6-------------6-6-4-6-------------------6-6-6-4-6-------|
a|-------------------------------------------------------------------------|
e|-4-----------------------------------------------------------------------|

e|------------------------7-9-9-9-7-9-7-9-7-------------------------------|
b|------------6s9-9-9-7-9-------------------9-7---------------------------|
g|---4------------------------------------------8-6-4-4h6s8-4-6s8-4-6s8-4-|
d|-6---6------------------------------------------------------------------|
a|------------------------------------------------------------------------|
e|------------------------------------------------------------------------|


e|-----------------------------------------------------------------------|
b|----------------------6s9-9--------------------------------------------|
g|6-4-------4---4---4-4-------6-6----------------------------------------|
d|----6-4h6---6---6------------------------------------------------------|
a|-----------------------------------------------------------------------|
e|-----------------------------------------------------------------------|
Tap to rate this tab
 
# A B C D E F G H I J K L M N O P Q R S T U V W X Y Z