Song name
# A B C D E F G H I J K L M N O P Q R S T U V W X Y Z

Arctic Monkeys - Cornerstone tab

Tabbed By: Charlie Jennings

e---------------------------------------------------------|
B--10-7-9-5-2~------2-3-2--------2--5--------2-3-2--------|
G-------------------------4-2-4--------4b----------4-2-4--|
D---------------------------------------------------------|
A---------------------------------------------------------|
E---------------------------------------------------------|

e---------------------------------------------------------|
B--10-7-9-5-2~----10-9-7-5-2~-----5~------5~--------2-----|
G-------------------------------4~------4~--------4---2~--|
D---------------------------------------------------------|
A---------------------------------------------------------|
E---------------------------------------------------------|

b = bend
~ = hold note
Tap to rate this tab
 
# A B C D E F G H I J K L M N O P Q R S T U V W X Y Z