Song name
# A B C D E F G H I J K L M N O P Q R S T U V W X Y Z

Arctic Monkeys - Flourescent Adolescent tab

Tabbed by Evil Dark Bob
Song - Fluorescent Adolescent - Arctic Monkeys

Standard Tuning (EADGBe)

Intro
e|-------------------------------------------------------------|
B|-------------------------------------------------------------|
G|-------------------------------------------------------------|
D|-------------------------------------------------------------|x2
A|--------------2-4-4-4--4-2-------------4-2-2-2---------------|
E|-0-0-0--0-2-4--------------2-2-2-2-2-2---------4-4-2-2-------|

Verse - Nothing is played until "Everything's in order in a black hole"
intro repeated until chorus

Chorus
e|-------------------------------------------------------------|
B|-------------------------------------------------------------|
G|----------4-4------------4-4-4-4--------------4-4-4-4-4-4----|
D|---4-4----4-4---4-4-4-4--4-4-4-4--4-4-4-4-4-4-4-4-4-4-4-4-4/7|
A|---4-4----2-2---4-4-4-4--2-2-2-2--4-4-4-4-4-4-2-2-2-2-2-2-2/7|
E|---2-2----------2-2-2-2-----------2-2-2-2-2-2-------------2/5|

Verse 2 - I just play the intro again throughout this verse.

Chorus 2
e|------------------------------------------------------------|
B|------------------------------------------------------------|
G|-------------4-4-4-4-4-4-------------4-4-4-4-4-4------------|
D|-4-4-4-4-2-4-4-4-4-4-4-4-4-4-4-4-4-4-4-4-4-4-4-4--4-4--4-4--|
A|-4-4-4-4-4-4-2-2-2-2-2-2-4-4-4-4-4-4-2-2-2-2-2-2--4-4--4-4--|
E|-2-2-2-2-4-2-------------2-2-2-2-2-2--------------2-2--2-2--|

e|------------------------------------------------------------|
B|------------------------------------------------------------|
G|-------------4-4-4-4-4-4-------------4-4-4-4-4-4------------|
D|-4-4-4-4-2-4-4-4-4-4-4-4-4-4-4-4-4-4-4-4-4-4-4-4------------|
A|-4-4-4-4-4-4-2-2-2-2-2-2-4-4-4-4-4-4-2-2-2-2-2-2------------|
E|-2-2-2-2-4-2-------------2-2-2-2-2-2------------------------|

Bridge part
e|------------|
B|------------|
G|-----6------|
D|--4--6--6---|x4
A|--4--4--6---|
E|--2-----4---|

Intro played again through the next part but after "your not coming back again"...
e|-------------------------------------------------------------|
B|-------------------------------------------------------------|
G|-------------------------------------------------------------|
D|-------------------------------------------------------------|
A|--------------2-4-4-4--4-2-------------4-2-2-2-2-2-2-2-2-6-6-|
E|-0-0-0--0-2-4--------------2-2-2-2-2-2-----------------------|

e|-------------------------------------------------------------|
B|-------------------------------------------------------------|
G|-------------------------------------------------------------|
D|-------------------------------------------------------------|
A|-6-6-6-6-7-6-4-----------------------------------------------|
E|-------------------------------------------------------------|

Then repeat intro again until end of the song. I hope this helped :)
Tap to rate this tab
# A B C D E F G H I J K L M N O P Q R S T U V W X Y Z