Song name
# A B C D E F G H I J K L M N O P Q R S T U V W X Y Z

Arctic Monkeys - Fright Lined Dining Room tab

----------------------------------------------------------------------------
                  Fright Lined Dining Room by Arctic Monkeys
----------------------------------------------------------------------------

Tabbed by: PropaDerbyLad
Email: rabid_monkey28@hotmail.com 

Comments and corrections are welcome and email me if you have any questions or owt... :)

Tuning: Standard (EADGBe)

Intro:

Guitar 1 (distortion & tremolo effect):

e|----2-----7-5-3--3--3-------|
B|---3-3---6------5--5--------|
G|--4---4/7------4--4---------|
D|----------------------------|
A|----------------------------|
E|----------------------------|

Both guitars (distortion & tremolo effect):

e|--2-2/8-8\5-3-7-7---|--2-2/8-8\5-3--5---|--2-2/8-8\5-3-7-7---|
B|--3-3/7-7\5-5-5-5---|--3-3/7-7\5-5--5---|--3-3/7-7\5-5 5-5---|
G|--4-4/8-8\4-4-4-4---|--4-4/8-8\4-4--4---|--4-4/8-8\4-4-4-4---| 
D|--------------------|-------------------|--------------------|
A|--------------------|-------------------|--------------------|
E|--------------------|-------------------|--------------------|

e|--2-2/8-8\5-3--5-2~--|
B|--3-3/7-7\5-5--5-3~--|
G|--4-4/8-8\4-4--4-4~--|  ~ = Let ring
D|---------------------|
A|---------------------|
E|---------------------|

Verse:

Guitar 1 (distortion & tremolo effect):

e|-----------------------------|
B|--2b-0---0----11b-0---10-7---|
G|-----------------------------|
D|-----------------------------|
A|-----------------------------|
E|-----------------------------|

Chorus:

Both guitars (distortion):

e|----------------------------------------|
B|----------------------------------------|
G|----------------------------------------|
D|----------------------------------------|
A|----------------------------------------|
E|-0-8-7-0-8-7-0-8-7-0-8-7-0-8-7-0-8-7-0--|

After Chorus:

Guitar 1 (distortion & tremolo effect):

e|----2-----7-5-3--2/3--2--2-3-2--------7---3--3--2--2-3-2-----------|
B|---3-3---6-------3/5----3-----5--3--3--6----5-----3-----5-3--------|
G|--4---4/7--------4/4---4-----------4-------4-----4---------4-2-4~--|
D|-------------------------------------------------------------------|
A|-------------------------------------------------------------------|
E|-------------------------------------------------------------------|

e|-------2--3~----------|
B|-----3----5~----------|
G|---4------4~----------|
D|----------------------|
A|----------------------|
E|----------------------|

Second Verse:

Both guitars (distortion & tremolo effect):

e|--2-2/8-8\5-3-7-7---|--2-2/8-8\5-3-3-3--|--2-2/8-8\5-3-7-7---|
B|--3-3/7-7\5-5-5-5---|--3-3/7-7\5-5-5-5--|--3-3/7-7\5-5 5-5---|
G|--4-4/8-8\4-4-4-4---|--4-4/8-8\4-4-4-4--|--4-4/8-8\4-4-4-4---| 
D|--------------------|-------------------|--------------------|
A|--------------------|-------------------|--------------------|
E|--------------------|-------------------|--------------------|

e|--2-2/8-8\5-----|
B|--3-3/7-7\5-----|
G|--4-4/8-8\4-----|
D|----------------|
A|----------------|
E|----------------|

Heavy riff:

Guitar 1 (distortion):

e|-------------------------------------|
B|-------------------------------------|
G|-------------------------------------|
D|-------------------------------------|
A|-------------------------------------|
E|-7777-10-7-77-8-7--77-10-7-8-7-8-7---|

e|----------------------------------------|
B|----------------------------------------|
G|----------------------------------------|
D|----------------------------------------|
A|----------------------------------------|
E|-77-10-7-77-8-7--77-10-7-8-7-8-7--(x3)--|

Guitar 2 (distortion):

e|--------------------------|
B|---0~-------------7b~-----|
G|----------4b~-------------|
D|--------------------------|
A|--------------------------|
E|--------------------------|

Both guitars (distortion):

e|-----------------------------------------------|
B|-----------------------------------------------|
G|-----------------------------------------------|
D|-----------------------------------------------|
A|-----------------------------------------------|
E|-8-7--77-10-7--77-8-7--77-10-7--8-7-8-7--(x2)--|

e|-----------------------------------------------|
B|-----------------------------------------------|
G|-----------------------------------------------|
D|-----------------------------------------------|
A|-----------------------------------------------|
E|-77-10-7--77-8-7--77-10-7--8-7-8-7--7777-8-7---|
e|-----------------------------------------------|
B|-----------------------------------------------|
G|-----------------------------------------------|
D|-----------------------------------------------|
A|-----------------------------------------------|
E|-77-10-7--77-8-7--77-10-7--8-7-8---------------|

Guitar 1 (distortion):

e|--------------------------------------------|
B|--------------------------------------------|
G|--------------------------------------------|
D|--------------------------------------------|
A|--------------------------------------------|
E|-7777-10-7-7777-8-7--77-8-7-7777-8-7--(x7)--|

e|------------------------------------|
B|------------------------------------|
G|------------------------------------|
D|------------------------------------|
A|------------------------------------|
E|-7777-10-7-7777-8-7--77-8-7-7777-3--|

Guitar 2 (distortion):

e|------------------------------|
B|---11b----------7/11b---------|
G|----------4b-------------4b---|
D|------------------------------|
A|------------------------------|
E|------------------------------|

Both guitars (distortion):

e|--------------------------------------------|
B|--------------------------------------------|
G|--------------------------------------------|
D|--------------------------------------------|
A|--------------------------------------------|
E|--7777-10-7-7777-8-7--77-8-7-7777-8-7-(x4)--|

e|------------------------------------|
B|------------------------------------|
G|------------------------------------| But play this on the second time
D|------------------------------------|
A|------------------------------------|
E|-7777-10-7-7777-8-7--77-8-7-7777-3--|

Outro:

Both guitars (distortion):

e|----------------------------------------|
B|----------------------------------------|
G|----------------------------------------|
D|----------------------------------------|
A|----------------------------------------|
E|-0-8-7-0-8-7-0-8-7-0-8-7-0-8-7-0-8-7-0--|

Guitar 1 (distortion & tremolo effect):

e|----2-----7-5-3--3-7v~---|
B|---3-3---6------5--------|
G|--4---4/7------4---------|  v = Slowly bend note out of tune and then back
D|-------------------------|      in tune again with tremolo arm
A|-------------------------|
E|-------------------------|


Great song by a truly great band...enjoy! :)


| /  slide up
| \  slide down
| h  hammer-on
| p  pull-off
| ~  vibrato
| +  harmonic
| x  Mute note
=============================================================================
Tap to rate this tab
# A B C D E F G H I J K L M N O P Q R S T U V W X Y Z