Song name
# A B C D E F G H I J K L M N O P Q R S T U V W X Y Z

Arctic Monkeys - Fright Lined Dining Room tab

Hello!

Well, I've got just a small part of this song that I love!
This super
because this song on the solo this simple
porq hopefully serve them just took that part
but the rest get case of missing
I say goodbye
goodbye!

            Arctic Monkeys-Fright Lined Dining Room [Solo]


But before kick ps only a small part that starts at minute 1:15
but I think not very well but will improve them sounds good but is not quite perfect 
serve them well!
and if you do not like to try to improve it!


Guitar 2

e|-----------------------3-2-3-----3-----------------------|
B|--7----7-8-7-5---3-0-3-------0-3---7----7-8-7-5--3-0--0--|
G|---6-7-------------------------------6-7-------------2---|
D|---------------------------------------------------------|
A|---------------------------------------------------------|
E|---------------------------------------------------------|


Now if this is the only correct if only to assure you a good distortion and is perfect
this single is not so complicated
There are going!


Guitar 1 [Distortion]

e|-----------------------|      ---------------------------|
B|-----------------------|      ---------------------------|
G|-----------------------|      ---------------------------|
D|-----------------------| [x7] ---------------------------|
A|--2252--2232--22523232-|      -2252--2232--2252323-2~----|
E|-----------------------|      ---------------------------|

Guitar 2 does the same as Guitrra 1, only the guitar 2 starts when repeated 4 ATTORNEY.

After the end of the guitar 1 keeps the Guitar 2
only faster strumming.
this simple!
and I assure q liked as it sounds with a good distortion!

Guitar 2 [Distortion]

e|----------------------------------------------------------|
B|----------------------------------------------------------|
G|----------------------------------------------------------|
D|----------------------------------------------------------| [x4]
A|-22225522222232--2252-222232--22225522222232--2252-22223--|
E|----------------------------------------------------------|

e|-----------------------------|
B|-----------------------------|
G|-----------------------------|
D|-----------------------------|
A|-22225522222232--2252-22220~-|
E|-----------------------------|

e|-----------------------------------------------------------|
B|-----------------------------------------------------------|
G|-----------------------------------------------------------|
D|-----------------------------------------------------------|
A|-22225522222232--2252-222232--22225522222232--2252-22220~--|
E|-----------------------------------------------------------|

e|----------------------------------------------------------|
B|----------------------------------------------------------|
G|----------------------------------------------------------|
D|----------------------------------------------------------|
A|-22225522222232--2252-222232--22225522222232--2252-22223--|
E|----------------------------------------------------------|


After all this is this and that and everything would be taken until the moment.


 Guitar 2
D|--------------------------------------|
A|----3-2---3-2---3-2---3-2---3-2---3-2-|
E|--0-----0-----0-----0-----0-----0-----|


The song is very simple
Well that's all I could leave them until the moment
bye
here I leave my email for any comments they have or preunta
I'm good
take care

ska-p_anime@hotmail.com
ska-p_anime@hotmail.com
Tap to rate this tab
# A B C D E F G H I J K L M N O P Q R S T U V W X Y Z