Song name
# A B C D E F G H I J K L M N O P Q R S T U V W X Y Z

Arctic Monkeys - No Buses tab

-------------------------------------------------------------------------------
			     NO BUSES - Arctic Monkeys
-------------------------------------------------------------------------------
Tabbed by: Federico Ribeiro

Tuning: Standard

Intro

e--7--4--|--4-----|--5--9--|--7-----|--5--9--|--11--9-|-9--7-4-|--4-----|--------|
B--9--5--|--4-----|--5--10-|--9-----|--5--10-|--12--9-|-10-7-4-|--5-----|--------|
G--9--6--|--4-----|--6--9--|--9-----|--6--11-|--13--10|-11-8-4-|--4-----|--------|
D--------|--------|--------|--------|--------|--------|--------|--------|--------|
A--------|--------|--------|--------|--------|--------|--------|--------|--------|
E--------|--------|--------|--------|--------|--------|--------|--------|--------|

Verse 1

e--------|--------|--------|--------|--------|--------|----7-4-|--4-----|
B--------|--------|--------|--------|--------|--------|----7-4-|--5-----|
G--------|--------|--------|--------|--------|--------|----8-4-|--4-----|
D--------|--------|--------|--------|--------|--------|--------|--------|
A--------|--------|--------|--------|--------|--------|--------|--------|
E--------|--------|--------|--------|--------|--------|--------|--------|

Verse 2

e--7--4--|--4-----|--5--9--|--7-----|--5--9--|--11--9-|-9--7-4-|--4-----|--------|
B--9--5--|--4-----|--5--10-|--9-----|--5--10-|--12--9-|-10-7-4-|--5-----|--9-----|
G--9--6--|--4-----|--6--9--|--9-----|--6--11-|--13--10|-11-8-4-|--4-----|--7-----|
D--------|--------|--------|--------|--------|--------|--------|--------|--6-----|
A--------|--------|--------|--------|--------|--------|--------|--------|--------|
E--------|--------|--------|--------|--------|--------|--------|--------|--------|

Chorus 1

e--------|--------|--------|--------|--------|--------|--------|--------|
B--------|--------|--------|--------|--------|--------|--------|--------|
G--------|--------|----4-2-|--------|--------|--------|----2-4-|--------|
D----2-4-|-6--2-4-|-6------|-6------|----2-4-|-6--2-4-|-6------|-6------|
A-0------|--------|--------|--------|-0------|--------|--------|--------|
E--------|--------|--------|--------|--------|--------|--------|--------|

e-0-0-0--|--------|-4-4-4--|--------|
B-2-2-2--|--------|-4-4-4--|--------|
G-2-2-2--|--------|-5-5-5--|--------|
D-2-2-2--|22222222|-6-6-6--|--------|
A-0-0-0--|--------|-6-6-6--|66666666|
E--------|--------|--------|--------|

Verse 3

e--7--4--|--4-----|--5--9--|--7-----|--5--9--|--11--9-|-9--7-4-|--4-----|--------|
B--9--5--|--4-----|--5--10-|--9-----|--5--10-|--12--9-|-10-7-4-|--5-----|--------|
G--9--6--|--4-----|--6--9--|--9-----|--6--11-|--13--10|-11-8-4-|--4-----|--------|
D--------|--------|--------|--------|--------|--------|--------|--------|--------|
A--------|--------|--------|--------|--------|--------|--------|--------|--------|
E--------|--------|--------|--------|--------|--------|--------|--------|--------|

Chorus 2

e--------|--------|--------|--------|
B--------|--------|--------|--------|
G--------|--------|----4-2-|--------|
D----2-4-|-6--2-4-|-6------|-6------|
A-0------|--------|--------|--------|
E--------|--------|--------|--------|

e-----------------|-----------------|-----------------|-----------------|
B-----------------|-----------------|-----------------|-----------------|
G-----------------|-----------------|---------4-4-2-22|-----------------|
D---------2-2-4-44|-6-66-66-2-2-4-44|-6-66-66---------|-6-66-66-6-66-66-|
A-0-0-0-0---------|-----------------|-----------------|-----------------|
E-----------------|-----------------|-----------------|-----------------|

e-0-0-0--|--------|-4-4-4--|--------|
B-2-2-2--|--------|-4-4-4--|--------|
G-2-2-2--|--------|-5-5-5--|--------|
D-2-2-2--|22222222|-6-6-6--|-----666|
A-0-0-0--|--------|-6-6-6--|66666666|
E--------|--------|--------|-----888|

Bridge

e-----------------|---------11--10--|--9--------------|-----------------|
B---------9--7--9-|---------12--11--|--10-------------|---------9--7----|
G--6--------------|--6------13--12--|--11-------------|-6-6-6-9-------9-|
D-----------------|-----------------|-----------------|-----------------|
A-----------------|-----------------|-----------------|-----------------|
E-----------------|-----------------|-----------------|-----------------| 

e--------------7--|---------11--10--|--9--------------|-----------------|
B-----------------|--9------12--11--|--10-------------|---------9slide5-|
G--6--------------|---------13--12--|--11-------------|-6-6-6-9---------|
D-----------------|-----------------|-----------------|-----------------|
A-----------------|-----------------|-----------------|-----------------|
E-----------------|-----------------|-----------------|-----------------|

Verse/Outro

e--7--4--|--4-----|--5--9--|--7-----|--5--9--|--------|-9--7-4-|--4-----|-9--7-4-|--4-----|
B--9--5--|--4-----|--5--10-|--9-----|--5--10-|--------|-10-7-4-|--5-----|-10-7-4-|--5-----|
G--9--6--|--4-----|--6--9--|--9-----|--6--9--|--------|-11-8-4-|--4-----|-11-8-4-|--4-----|
D--------|--------|--------|--------|--------|--------|--------|--------|--------|--------|
A--------|--------|--------|--------|--------|--------|--------|--------|--------|--------|
E--------|--------|--------|--------|--------|--------|--------|--------|--------|--------|

e--------------------------|-------19--21-19----------|--------------------------|
B--------------------------|--21-21-----------21--19--|--17----------------------|
G--------------------------|-------16--18-16----------|--------------------------|
D--------------------------|--18-18-----------18--16--|--14----------------------|
A--------------------------|--------------------------|--------------------------|
E--------------------------|--------------------------|--------------------------|
Tap to rate this tab
# A B C D E F G H I J K L M N O P Q R S T U V W X Y Z