Song name
# A B C D E F G H I J K L M N O P Q R S T U V W X Y Z

Arctic Monkeys - The Fire And The Thud tab

intro and chords are already up so heres the solo, sounds kl but its relatively simple

e|-----------------------------------------------|
B|-12b^r-p10----10b^--------10br-----12b-----10b-|
G|-----------11---------/11-------11------11-----|
D|-----------------------------------------------|
A|-----------------------------------------------|
E|-----------------------------------------------|

e|-----------------------------------------------|
B|-12b^r-p10----10b^--------10br-----12b-----10b-|
G|-----------11---------/11-------11------11-----|
D|-----------------------------------------------|
A|-----------------------------------------------|
E|-----------------------------------------------|

bends are all quite slow except the 10br which is very quick
Tap to rate this tab
# A B C D E F G H I J K L M N O P Q R S T U V W X Y Z