Song name
# A B C D E F G H I J K L M N O P Q R S T U V W X Y Z

Arctic Monkeys - Pretty Visitors tab

Drop D Tuning

Verse 1:
E----------------------------------------|
B----------------------------------------|
G----------------------------------------|
D----------------------------------------|
A----------------------------------------|(x2)
D-4-4-4-4-0-0-0-0-4----------------------|

E----------------------------------------|
B----------------------------------------|
G----------------------------------------|
D----------------------------------------|
A-2-2-2-2---------2-2-2-2----------------|
D---------4-4-4-4---------4-4-4-4--------|

E----------------------------------------|
B----------------------------------------|
G----------------------------------------|
D----------------------------------------|
A----------------------------------------|
D-4-4-4-4-0-0-0-0-4----------------------|

Repeat that for the rest of the verse.

Chorus:
E----------------------------------------|
B----------------------------------------|
G----------------------------------------|
D----------------------------------------|
A-------------4-5--5--5------------------|(x4)
D-4--4--4--4-7-----------7---------------|

Verse 2:
E----------------------------------------|
B----------------------------------------|
G----------------------------------------|
D----------------------------------------|
A----------------------------------------|(x2)
D-4-4-4-4-0-0-0-0-4----------------------|

E----------------------------------------|
B----------------------------------------|
G----------------------------------------|
D----------------------------------------|
A-2-2-2-2---------2-2-2-2----------------|
D---------4-4-4-4---------4-4-4-4--------|

E----------------------------------------|
B----------------------------------------|
G----------------------------------------|
D----------------------------------------|
A----------------------------------------|
D-4-4-4-4-0-0-0-0-4----------------------|

Repeat that for the rest of the verse.

Chorus:
E----------------------------------------|
B----------------------------------------|
G----------------------------------------|
D----------------------------------------|
A-------------4-5--5--5------------------|(x4)
D-4--4--4--4-7-----------7---------------|

Post Chorus:
(The quiet part before the solo)
E-9/14~---9\6~--9-9/14~---9\6~-----------|
B----------------------------------------|
G----------------------------------------|
D----------------------------------------|
A----------------------------------------|
D----------------------------------------|

Solo:
[Jamie]
E----------------------------------------|
B----------------------------------------|
G----------------------------------------|
D-----------4-3---3-4--------------------|
A---5--4--5-----5-----4~-----------------|(x4)
D-4--------------------------------------|

[Alex]
Alex starts to play after Jamie plays his part once.
E----------------------------------------|
B----------------------------------------|
G----------------------------------------|
D----------------------------------------|
A---8b----8b---8--11--12-----------------|
D----------------------------------------|
(Listen for timings)

E----------------------------------------|
B----------------------------------------|
G--------------11-10----10-11------------|
D---12--11--12-------12-------11~--------|
A-9--------------------------------------|(x2)
D----------------------------------------|
Alex stops playing after the solo.

Post Solo:
E----------------------------------------|
B----------------------------------------|
G----------------------------------------|
D----------------------------------------|
A----------------------------------------|
D-4-4-4-4-4-4-4-0~-----------------------|

E----------------------------------------|
B----------------------------------------|
G----------------------------------------|
D----------------------------------------|
A----------------------------------------|(x2)
D-4-4-4-4-4-4-4-4-4-4-4-4-4-0~-----------|

E----------------------------------------|
B----------------------------------------|
G----------------------------------------|
D----------------------------------------|
A----------------------------------------|
D-4-4-4-4-4-4-4-4-4-4-4-4-4-0--0--0--6---|
You’ll Probably have to listen to the song to get that part.

Chorus:
E----------------------------------------|
B----------------------------------------|
G----------------------------------------|
D----------------------------------------|
A-------------4-5--5--5------------------|(x4)
D-4--4--4--4-7-----------7---4~~~--------|
Tap to rate this tab
 
# A B C D E F G H I J K L M N O P Q R S T U V W X Y Z