Song name
# A B C D E F G H I J K L M N O P Q R S T U V W X Y Z

Arctic Monkeys - Diamonds Are Forever tab

Intro:
E----9-----------------------------|
B------9----9----9-10--------------|
G-11-----11---11-------------------|
D----------------------------------|
A----------------------------------|(x2)
E----------------------------------|

E---10-----------------------------|
B------9----9----9-10--------------|
G-11-----11---11-------------------|
D----------------------------------|
A----------------------------------|(x2)
E----------------------------------|

E----9-----------------------------|
B------9----9----9-10--------------|
G-11-----11---11-------------------|
D----------------------------------|
A----------------------------------|(x2)
E----------------------------------|

E---10-----------------------------|
B------9----9----9-10--------------|
G-11-----11---11-------------------|
D----------------------------------|
A----------------------------------|(x2)
E----------------------------------|

E---9------------------------------|
B-----9----9----9-10---------------|
G-9-----11---11--------------------|
D----------------------------------|
A----------------------------------|(x2)
E----------------------------------|

E----------------------------------|
B----------------------------------|
G-2-2-2--2--0----------------------|
D-4-4-4--4--2----------------------|
A-4-4-4--4--2----------------------|(x2)
E----------------------------------|

Verse:
E----------------------------------|
B----------------------------------|
G---6------------------------------|
D-4---6-4-6-4-6-7------------------|
A----------------------------------|(x2)
E----------------------------------|

E----------------------------------|
B----------------------------------|
G---7------------------------------|
D-4---6-4-6-4-6-7------------------|
A----------------------------------|(x2)
E----------------------------------|

E----------------------------------|
B----------------------------------|
G---6------------------------------|
D-2---6-4-6-4-6-7------------------|
A----------------------------------|(x2)
E----------------------------------|

E----------------------------------|
B-3--3-3--3-3-3-3--3--3--3---------|
G-4--4-4--4-4-4-4--4--4--4---------|
D-5--5-5--5-5-5-5--5--5--5---------|
A-5--5-5--5-5-5-5--5--5--5---------|
E----------------------------------|

E----------------------------------|
B----------------------------------|
G-2-2-2-2-2-2-2--------------------|
D-4-4-4-4-4-4-4--------------------|
A-4-4-4-4-4-4-4--------------------|
E----------------------------------|


Chorus:
E-12-14-12-10-12-10-9~-------------|
B----------------------------------|
G----------------------------------|
D----------------------------------|
A----------------------------------|
E----------------------------------|

E-9-10-9-7-9-7-5~------------------|
B----------------------------------|
G----------------------------------|
D----------------------------------|
A----------------------------------|
E----------------------------------|

E-5-7-5-3-5-3-2~-------------------|
B----------------------------------|
G----------------------------------|
D----------------------------------|
A----------------------------------|
E----------------------------------|

E-2-5-4-7-5-10-9~----9~/16~--------|
B----------------------------------|
G----------------------------------|
D----------------------------------|
A----------------------------------|
E----------------------------------|

Verse 2 is the same as Verse 1

Chorus:
E-12-14-12-10-12-10-9~-------------|
B----------------------------------|
G----------------------------------|
D----------------------------------|
A----------------------------------|
E----------------------------------|

E-9-10-9-7-9-7-5~------------------|
B----------------------------------|
G----------------------------------|
D----------------------------------|
A----------------------------------|
E----------------------------------|

E-5-7-5-3-5-3-2~-------------------|
B----------------------------------|
G----------------------------------|
D----------------------------------|
A----------------------------------|
E----------------------------------|

E-2-5-4-7-5-10-9~----9~/16~\-------|
B----------------------------------|
G----------------------------------|
D----------------------------------|
A----------------------------------|
E----------------------------------|

Post Chorus:
E----------------------------------|
B----------------------------------|
G----------------------------------|
D-----------------------------4~---|
A------------4~----2~--4~--5~------|
E-2~--4~--5~-----------------------|

E----------------------------------|
B-3--3-3-3--3-3--3-3-3-------------|
G-4--4-4-4--4-4--4-4-4-------------|
D-5--5-5-5--5-5--5-5-5-------------|
A-5--5-5-5--5-5--5-5-5-------------|(x2)
E----------------------------------|

Ending:
E----------------------------------|
B----------------------------------|
G-------------6/11~---6/11~---13b~-|
D----------------------------------|
A-4/9~---4/9~----------------------|
E----------------------------------|




b| bend note
/|slide up
\|slide down
~|hold note
Tap to rate this tab
# A B C D E F G H I J K L M N O P Q R S T U V W X Y Z