Song name
# A B C D E F G H I J K L M N O P Q R S T U V W X Y Z

Arctic Monkeys - Do Me A Favour tab

0:05
Intro:
Bass Riff:
E-------------------------------------------------|
B-------------------------------------------------|
G-------------------------------------------------|
D-------------------------------------------------|
A---0--4-4-------0--4-4-4-------------------------|
E-2---------2--2----------------------------------|

0:10
Both guitars play this chord
E-2~------|
B-2~------|
G-2~------|
D-4~------|
A-4~------|
E---------|
This is played for the verse too

0:35
[Jamie]
E-9---7--5--2~------9--------------|
B-10--9--7--2~------9--------------|
G----------------------------------|
D----------------------------------|
A----------------------------------|
E----------------------------------|
Jamie plays that until the chorus

[Alex]
E-2~-----9---7-----2~-----9---7---9~--------------|
B-2~-----9---7-----2~-----9---7---10~-------------|
G-2~-----9---7-----2~-----11--7---11~-------------|
D-4~-----11--9-----4~-----11--9---11~-------------|
A-4~-----11--9-----4~-----11--9---9~--------------|
E-------------------------------------------------|

E-9---7---4----2-----9~-----9---7---4----2--------|
B-10--8---5----3-----10~----10--8---5----3--------|
G-11--9---6----4-----11~----11--9---6----4--------|
D-11--9---6----4-----11~----11--9---6----4--------|
A-9---7---4----2-----9~-----9---7---4----2--------|
E-------------------------------------------------|

0:58
Verse 2:
E--------4-----2--------|
B-2------5-----3--------|
G-2------6-----4--------|
D-4(x16)-6(x8)-4(x8)----|
A-4------4-----2--------|
E-----------------------|

1:19
Chorus 1:
[Jamie]
E-------------------------------------------------|
B-------------------------------------------------|
G---11--9------------------------9----------------|
D-7-------11--9-7/9-11--7--9--11---11-7-----------|(x3)
A-------------------------------------------------|
E-------------------------------------------------|

E----------------------9---7--5---2~--------------|
B----------------------10--9--7---2~--------------|
G---------------9---------------------------------|
D---7--9--11--9---11------------------------------|
A-9-----------------------------------------------|
E-------------------------------------------------|

[Alex]
E---------------------------|
B-7------10-----5-----------|
G-7------11-----6-----------|
D-7(x16)-11(x8)-6(x8)-------|(x3)
A-5------9------4-----------|
E---------------------------|

E--------------------2~-----|
B-7------5-----3-----2~-----|
G-7------6-----4-----2~-----|
D-7(x16)-6(x8)-4(x8)-4~-----|
A-5------4-----2-----4~-----|
E---------------------------|

1:41
[Jamie]
E-9---7--5--2~----|
B-10--9--7--2~----|
G-----------------|
D-----------------|
A-----------------|
E-----------------|

[Alex]
E-2~------|
B-2~------|
G-2~------|
D-4~------|
A-4~------|
E---------|

1:51
E-------------------------------------------------|
B-------------------------------------------------|
G-6~---4~--------------------------4~-------------|
D----------7~---6~---4~---6~---7~-----------------|
A-------------------------------------------------|
E-------------------------------------------------|

2:13
[Jamie]
E-9---7--5--2~----|
B-10--9--7--2~----|
G-----------------|
D-----------------|
A-----------------|
E-----------------|

[Alex]
E-2~-----9----7-----|
B-2~-----9----7-----|
G-2~-----9----7-----|
D-4~-----11---9-----|
A-4~-----11---9-----|
E-------------------|
Repeat that until 2:33

2:35
[Jamie]
E-------------------------------------------------|
B-------------------------------------------------|
G-------------------------------------------------|
D-------------------------------------------------|
A-5--5--5--5--5--5--5--5-4-4-4-4-4-4-4-4-9-9-9-9--|
E-------------------------------------------------|


E-------------------------------------------------|
B-------------------------------------------------|
G-------------------------------------------------|
D---------7--7--7--7--7--7--7--7--7-7-7-7-7-7-7-7-|
A-9-9-9-9-----------------------------------------|
E-------------------------------------------------|


E-------------------------------------------------|
B-------------------------------------------------|
G-----------------6--6--6--6--6--6--6--6--6-6-6-6-|
D-9-9-9-9-9-9-9-9---------------------------------|
A-------------------------------------------------|
E-------------------------------------------------|


E-------------------------------------------------|
B-------------------------------------------------|
G-6-6-6-6-7-7-7-7-7-7-7-7-6--6--6--6--6--6--6--6--|
D-------------------------------------------------|
A-------------------------------------------------|
E-------------------------------------------------|


E-------------------------------------------------|
B-------------------------------------------------|
G-6-6-6-6-7-7-7-7-9-9-9-9-7-7-7-7-----------------|
D-------------------------------------------------|
A-------------------------------------------------|
E-------------------------------------------------|
Stops at 2:55 and then plays what Alex plays

[Alex]
E-----------------------------------------|
B-7--7--7--7--7--7--7--7--2-2-2-2-2-2-2-2-|
G-7--7--7--7--7--7--7--7--2-2-2-2-2-2-2-2-|
D-7--7--7--7--7--7--7--7--4-4-4-4-4-4-4-4-|
A-5--5--5--5--5--5--5--5--4-4-4-4-4-4-4-4-|
E-----------------------------------------|


E-------------------------|
B-9--9--9--9--9--9--9--9--|
G-9--9--9--9--9--9--9--9--|
D-11-11-11-11-11-11-11-11-|(x7)
A-11-11-11-11-11-11-11-11-|
E-------------------------|


E-----------------------------------------|
B-7--7--7--7--7--7--7--7--5-5-5-5-5-5-5-5-|
G-7--7--7--7--7--7--7--7--6-6-6-6-6-6-6-6-|
D-7--7--7--7--7--7--7--7--6-6-6-6-6-6-6-6-|
A-5--5--5--5--5--5--5--5--4-4-4-4-4-4-4-4-|
E-----------------------------------------|

E-----------------|
B-3-3-3-3-3-3-3-3-|
G-4-4-4-4-4-4-4-4-|
D-4-4-4-4-4-4-4-4-|
A-2-2-2-2-2-2-2-2-|
E-----------------|

Ending:
[Alex]
E-2~~~---------2\-|
B-2~~~---------2\-|
G-2~~~---------2\-|
D-4~~~---------4\-|
A-4~~~---------4\-|
E-2~~~---------2\-|

[Jamie]
E-9---7--5--2~~~---------2\-|
B-10--9--7--2~~~---------2\-|
G---------------------------|
D---------------------------|
A---------------------------|
E---------------------------|
You can hear Jamie play that part toward the end.

/| slide up
\| slide down
~| hold note
Tap to rate this tab
 
# A B C D E F G H I J K L M N O P Q R S T U V W X Y Z