Arctic Monkeys - Dont Forget Whose Legs Youre On tab

Wait until 00:41
e|3~------3~------|
B|3~--------------|
G|3~--------------|
D|3~--------------|
A|----------------|
E|----------------|

Verse:
e|----4~--------4~---------9~--------4~----|
B|--4---------4---------10---------4-------|
G|4---------4---------9----------4---------|
D|-----------------------------------------|x2
A|-----------------------------------------|
E|-----------------------------------------|

Chorus:
e|----6~--------7~--------6~----------12~--------7~--------4~----|
B|--6---------7---------6----------12----------7---------5-------|
G|6---------8---------6---------10-----------8---------6---------|
D|---------------------------------------------------------------|
A|---------------------------------------------------------------|
E|---------------------------------------------------------------|

Bridge
e|--------------------7~---------------------7~----7---7~----7--|
B|------------------7-----------------------7~--------7~--------|
G|----6-7-9-8-6---8------------6-7-9-8-6---8~--------8~---------|
D|6-9-----------9----------6-9-----------9----------------------|
A|--------------------------------------------------------------|
E|--------------------------------------------------------------|

e|6~--------------------------7~---9--7-----6~------------------|
B|6~------------------------7---------------6~------------------|
G|6~----------------------8-----------------6~------------------|
D|--------------------------------------------------------------|
A|--------------------------------------------------------------|
E|--------------------------------------------------------------|

e|----7~---9--7------7~---9--7--6~-----------------|
B|--7--------------7------------6~-----------------|
G|8--------------8--------------6~-----------------|
D|-------------------------------------------------|
A|-------------------------------------------------|
E|-------------------------------------------------|

e|7~--------------6~----------------|
B|7~--------------6~----------------|
G|8~--------------6~----------------|
D|9~--------------------------------|
A|----------------------------------|
E|----------------------------------|

Chorus:
e|--------------7~--------6~--------12~--------7~------------4~----|
B|------------7~----------6~--------12~--------7~----------5-------|
G|----------8~------------6~--------10~--------8~--------6---------|
D|-----------------------------------------------------------------|
A|-----------------------------------------------------------------|
E|-----------------------------------------------------------------|

Outro:
e|--------------7~---------|  |--------------7~-----7----|
B|--------------7~---------|  |--------------7~-----7----|
G|----6-7-9-8-6-8~---------|  |----6-7-9-8-6-8~--8-------|
D|6-9-----------9~---------|x3|6-9-----------9~----------|
A|-------------------------|  |--------------------------|
E|-------------------------|  |--------------------------|

e|--------------7~---------|  |-------------------------|
B|--------------7~---------|  |-------------------------|
G|----6-7-9-8-6-8~---------|  |-------------/9r-----8~--|
D|6-9-----------9~---------|x4|6-9---6--6-----------9~--|
A|-------------------------|  |-------------------------|
E|-------------------------|  |-------------------------|

e|--------------7~---------|  
B|--------------7~---------|  
G|----6-7-9-8-6-8~---------|  
D|6-9-----------9~---------|Now play this until fade out
A|-------------------------|  
E|-------------------------|  
Tap to rate this tab
 
# A B C D E F G H I J K L M N O P Q R S T U V W X Y Z