Song name
# A B C D E F G H I J K L M N O P Q R S T U V W X Y Z

Arctic Monkeys - Settle For A Draw tab

Hi...there are 100% correct intro and solo of brilliant Arctic Monkeys song!  Enjoy! 

Intro

e -----------------------------------------------|
B ----------------77--99--77---------------------|
G ----88--66--88-------------88--66--8~--8~------|  X2
D -----------------------------------------------|
A -----------------------------------------------|
E -----------------------------------------------|

e -----------------------------------------------|
B ----------------77--99--77---------------------|
G ----88--66--88-------------88--66--------------| end 
D -----------------------------------------------|
A -----------------------------------------------|
E -----------------------------------------------|

Solo

e ------------------------------------------------------|
B ------------------------------------------------------|
G ----------8-6-----------------------------------------|  
D --------------8-6-4-6---4-6-4-888-8-6-4-66-6s8-6-4----|
A ---6-----------------------------------------------6--|
E ------------------------------------------------------|

e ------------------------------------------------------|
B ------------------------------------------------------|
G ---8-6----------------------------------6---6---------|  
D -------8-6-4-6---4-6-4-888-8-6-4-66-6s8---8-----------|
A ------------------------------------------------------|
E ------------------------------------------------------|

e ------------------------------------------------------|
B -----7---7-9-7-9-11-7---------------------------------|
G ---8---8--------------8---88-6-8--6-------------------|  
D -------------------------------------8-6-4-6----------|
A ---------------------------------------------6--------|
E ------------------------------------------------------|

e --------------------------------------------------------|
B ---11------11-------------11-11-11-----------------9----|
G -----11-8----11-8--11-11----------11-8-11-11--11-11-11--|  
D --------------------------------------------------------|
A --------------------------------------------------------|
E --------------------------------------------------------|

e ------------------------------------------------------|
B ---11-11--11-11-9-------------------------------------|
G ------------------11-8--------------------------------|  
D ------------------------------------------------------|
A ------------------------------------------------------|
E ------------------------------------------------------|

Tap to rate this tab
 
# A B C D E F G H I J K L M N O P Q R S T U V W X Y Z