Arctic Monkeys - Flourescent Adolescent tab

Pretty similar to the other versions. Good to play it this way when you only have one guitar.


Intro/outro
e|---7-7-7---------------9-------9------7-----2-------------7-----------7----|
B|---9-9-9---------------9-------9------7-----2---------2---7-----------9----|
G|---9-9-9---------------10------10-----6-----2-------------6-----------9----| x2
D|---9-9-9-------6-9/11--11--11--11--9--9--4--4---4--4----9-9---9-9-6---9----|
A|---7-7-7---7-9---------11------11-----9-----4-------------9---------9-7----|
E|-----------------------9-------9------7-----2-------------7----------------|




Strumming pattern is easy to guess

e|--7---9----7----2----7-----------------------------------------------------|
B|--9---9----7----2----7-----------------------------------------------------|
G|--9---10---6----2----6-----------------------------------------------------|
D|--9---11---9----4----9-----------------------------------------------------|
A|--7---11---9----4----9-----------------------------------------------------|
E|------9----7----2----7-----------------------------------------------------|

Chorus
e|---2----7------------------------------------------------------------------|
B|---2----7------------------------------------------------------------------|
G|---2----6------------------------------------------------------------------|
D|---4----9------------------------------------------------------------------|
A|---4----9------------------------------------------------------------------|
E|---2----7------------------------------------------------------------------|
Tap to rate this tab
 
# A B C D E F G H I J K L M N O P Q R S T U V W X Y Z