Song name
# A B C D E F G H I J K L M N O P Q R S T U V W X Y Z

Arctic Monkeys - Dont Forget Whose Legs Youre On tab

[0:40]
When the guitar comes in:
E-3------------3-------------------|
B-4--------------------------------|
G-5--------------------------------|
D----------------------------------|
A----------------------------------|
E----------------------------------|

[0:50]
E-----3------3------6------3-------|
B---4------4------6------4---------|
G-5------5------7------5-----------|
D----------------------------------|
A----------------------------------|
E----------------------------------|

E-----3------3------6------3-------|
B---4------4------6------4---------|
G-5------5------7------5-----------|
D----------------------------------|
A----------------------------------|
E----------------------------------|

E------8-------10-----8------13----|
B----9------12------8------13------|
G-10-----12-------8-----13---------|
D----------------------------------|
A----------------------------------|
E----------------------------------|

E------8-----7---------------------|
B----9-----6-----------------------|
G-10-----7-------------------------|
D----------------------------------|
A----------------------------------|
E----------------------------------|

[1:21]
E---------------------3------------|
B-----3-4-6-4-3-----4--------------|
G-3-5-----------3-5----------------|
D----------------------------------|
A----------------------------------|
E----------------------------------|

E----------------------------------|
B-----3-4-6-4-3--------------------|
G-3-5-----------3------------------|
D----------------------------------|
A----------------------------------|
E----------------------------------|

[1:27]
E-----1----3------1----3----3------|
B---1-----------1-----------4------|
G-1-----------1-------------5------|
D----------------------------------|
A----------------------------------|
E----------------------------------|

E-----1----3----1-----------3------|
B---1-----------------------4------|
G-1-------------------------5------|
D----------------------------------|
A----------------------------------|
E----------------------------------|

E-----1----4-1-----1----4---3------|
B---1------------1----------4------|
G-1------------1------------5------|
D----------------------------------|
A----------------------------------|
E----------------------------------|

E-1-------------------------3------|
B-1-------------------------4------|
G-1-------------------------5------|
D----------------------------------|
A----------------------------------|
E----------------------------------|

[2:10]
Next time you hear the guitar
E-------10------8-------13---------|
B----12---------8-------13---------|
G-12------------8-------13---------|
D----------------------------------|
A----------------------------------|
E----------------------------------|

E------8-------7-------------------|
B----9-------6---------------------|
G-10-------7-----------------------|
D----------------------------------|
A----------------------------------|
E----------------------------------|

[2:24]
E----------------3-----------------|
B-----3-4-6-4-3--4-----------------|
G-3-5------------5-----------------|
D----------------------------------|[x3]
A----------------------------------|
E----------------------------------|

E----------------3-------1---------|
B-----3-4-6-4-3--4-------1---------|
G-3-5------------5---5---1---------|
D----------------------------------|
A----------------------------------|
E----------------------------------|

E----------------3-----------------|
B-----3-4-6-4-3--4-----------------|
G-3-5------------5-----------------|
D----------------------------------|[x5]
A----------------------------------|
E----------------------------------|

E----------------------------------|
B----------------------------------|
G-3-5---3--3----/10----------------|
D----------------------------------|
A----------------------------------|
E----------------------------------|

E---3-------------3----------------|
B-----------------4----------------|
G-5---------------5----------------|
D----------------------------------|
A----------------------------------|
E----------------------------------|

E----------------3-----------------|
B-----3-4-6-4-3--4-----------------|
G-3-5------------5-----------------|
D----------------------------------|[x2]
A----------------------------------|
E----------------------------------|
Then songs fades
Tap to rate this tab
 
# A B C D E F G H I J K L M N O P Q R S T U V W X Y Z