Arctic Monkeys - Riot Van tab

-------------------------------------------------------------------------------
			     Arctic Monkeys-Riot Van
-------------------------------------------------------------------------------
Tabbed by:
Email:

Tuning:Standard

So up rolls a riot van And sparks excitement in the boys
----------------2------4-----2-----------------|
----------------3------5-----3-----------------|
----------------4------6-----4-----------------|
----------------4------6-----4-----------------|
----------------x------x-----x-----------------|
----------------x------x-----x-----------------|

               But the policemen look annoyed
2------4-----2-----------------|
3------5-----3-----------------|
4------6-----4-----------------|
4------6-----4-----------------|
x------x-----x-----------------|
x------x-----x-----------------|
               Perhaps these are ones they should avoid
2------4-----2-----------------|
3------5-----3-----------------|
4------6-----4-----------------|
4------6-----4-----------------|x2
x------x-----x-----------------|
x------x-----x-----------------|
  A                          E                         Bm
They got a chase last night from men with truncheon's dressed in hats
-----
-000-22222
-111-11111
-----
-----
-----
  A                               E                    Bm
They didn't do that much wrong, still ran away though for the laugh
-----
-000-22222
-111-11111
-----
-----
-----
"Please just stop talking Because they won't find us if you do
----------------2------4-----2-----------------|
----------------3------5-----3-----------------|
----------------4------6-----4-----------------|
----------------4------6-----4-----------------|
----------------x------x-----x-----------------|
----------------x------x-----x-----------------|
                             Oh those silly boys in blue
----------------2------4-----2-----------------|
----------------3------5-----3-----------------|
----------------4------6-----4-----------------|
----------------4------6-----4-----------------|
----------------x------x-----x-----------------|
----------------x------x-----x-----------------|
                             Well they won't catch me and you"
----------------2------4-----2-----------------|
----------------3------5-----3-----------------|
----------------4------6-----4-----------------|x2
----------------4------6-----4-----------------|
----------------x------x-----x-----------------|
----------------x------x-----x-----------------|
 A                          E                         Bm
"Have you been drinking son, you don't look old enough to me"
-----
-000-22222
-111-11111
-----
-----
-----
A                                  E                          Bm
"I'm sorry officer is there a certain age you're supposed to be?.. nobody told me"

Up rolled the riot van And these lads just wind the coppers up
----------------2------4-----2-----------------|
----------------3------5-----3-----------------|
----------------4------6-----4-----------------|
----------------4------6-----4-----------------|
----------------x------x-----x-----------------|
----------------x------x-----x-----------------|
               Ask why they don't catch proper crooks
2------4-----2-----------------|
3------5-----3-----------------|
4------6-----4-----------------|
4------6-----4-----------------|
x------x-----x-----------------|
x------x-----x-----------------|
               Get their address and their name's took
2------4-----2-----------------|
3------5-----3-----------------|
4------6-----4-----------------|x2
4------6-----4-----------------|
x------x-----x-----------------|
x------x-----x-----------------|
                                But they couldn't care less

(Solo)
---------------------------------------------------------|
---------------------------------------------------------|
---------------------------------------------------------|
---------------9\4---4\2--------------------4/11----9/14-|
-0-----9\4------------------0-----9\4--------------------|
---------------------------------------------------------|
Tap to rate this tab
 
# A B C D E F G H I J K L M N O P Q R S T U V W X Y Z