Arctic Monkeys - Fake Tales Of San Francisco tab

This is a lead guitar tab.

Standard Tuning.


Intro x1
e|--------------------------------------------------------|
B|--------------------------------------------------------|
G|--------------------------------------------------------| 
D|-------------------------------------------------7------|
A|-----5---5-7-5----5---5-7-5----5---5-7-5---5-7-9---7-5--|	
E|---7---7--------7---7--------7---7-------7--------------|


Verse x4
e|--------------------------------------------------------|
B|--------------------------------------------------------|
G|--------------------------------------------------------| 
D|-------------------------------------------------7------|
A|-----5---5-7-5----5---5-7-5----5---5-7-5---5-7-9---7-5--|	
E|---7---7--------7---7--------7---7-------7--------------|

Guitars dont play chorus

Verse 2 x4
e|--------------------------------------------------------|
B|--------------------------------------------------------|
G|--------------------------------------------------------| 
D|-------------------------------------------------7------|
A|-----5---5-7-5----5---5-7-5----5---5-7-5---5-7-9---7-5--|	
E|---7---7--------7---7--------7---7-------7--------------|

Guitars dont play the 2nd chorus 

Then the bridge, which is power chords

Bridge x2
e|----------------------------------------------------------------|
B|----------------------------------------------------------------|
G|--------------------------------9999999999999999----------------|
D|9999999999999999555555555555555599999999999999999999999999------|
A|9999999999999999555555555555555577777777777777779999999999-----7|
E|77777777777777773333333333333333----------------7777777777-7-10-|

2nd part of bridge x2
e|----------------------------------------------------------------|
B|----------------------------------------------------------------|
G|--------------------------------9999999999999999----------------|
D|9999999999999999555555555555555599999999999999999999999999999999|
A|9999999999999999555555555555555577777777777777779999999999999999|
E|77777777777777773333333333333333----------------7777777777777777|

Outro 


e|---7--7---5-----7--7---5-----7--7---5-----7--7---5------|
B|---7--7---5-----7--7---5-----7--7---5-----7--7---5------|
G|--------------------------------------------------------|
D|--------------------------------------------------------|
A|--------------------------------------------------------|
E|--------------------------------------------------------|



e|---7--7---5-----7--7---5-----7--7---5-----7--7---5-7\--|E
B|---7--7---5-----7--7---5-----7--7---5-----7--7---5-7\--|N
G|-------------------------------------------------------|D
D|-------------------------------------------------------|E
A|-------------------------------------------------------|N
E|-------------------------------------------------------|D
Tap to rate this tab
 
# A B C D E F G H I J K L M N O P Q R S T U V W X Y Z