Song name
# A B C D E F G H I J K L M N O P Q R S T U V W X Y Z

Arctic Monkeys - Only Ones Who Know tab

this is the intro bit of only ones who know that isnt the chords, i've looked and 
looked, but couldnt find it, so i fugured it out myself. enjoy !!! :)

e------------------------------------------------------|
b-------6-10-----6-13---10----6------8----10------6-10-|
g-----7--------7-------------------------------7-------|
d------------------------------------------------------|
a------------------------------------------------------|
e------------------------------------------------------|

e--------------------------|
b---9-13-----10---6/-------|
g-7------------------------|
d--------------------------|
a--------------------------|
e--------------------------|

this tune is also played in other parts of the song.
Tap to rate this tab
 
# A B C D E F G H I J K L M N O P Q R S T U V W X Y Z